Song name
# A B C D E F G H I J K L M N O P Q R S T U V W X Y Z

Circle Jerks - Red Tape tab

Circle Jerks
Group Sex
Red Tape

Tuning:
Standard

e B G D A E


Guitar I: Greg


Intro:
        
e---------||
B---------||
G---------||
D---------||
A-4--4----||
E-2--2----||
Red Tape!



Verse:
                      
e-----------------------||
B-----------------------||
G-----------------------||
D-----------------------||
A-9-9-9-9-7-7-7-7-4-4---||
E-7-7-7-7-5-5-5-5-2-2---||

"I can see it, can't you see it? Red Tape!..."



Fill:(transitioning into chorus)
                 
e------------------||
B------------------||
G------------------||
D------------------||
A-9-9-9-9-7-7-7-7--||
E-7-7-7-7-5-5-5-5--||

Chorus:
                                             
e-----------------------------------||-----------||
B-----------------------------------||-----------||
G-----------------------------------||-----------||
D-6-6-6-6-6-6-4-4-4-4-2-2-2-2-2-----||-----------||
A-4-4-4-4-4-4-2-2-2-2-0-0-0-0-0-----||-4-4--4-4--||
E-----------------------------------||-2-2--2-2--||
"Tax This! Tax That!..."             "No More Red Tape!"


Solo Fill:

e----------------------------------||
B----------------------------------||
G----------------------------------||
D-7-7-7-7-7-7-7-7------------------||
A-5-5-5-5-5-5-5-5-7-7-7-7-7-7-7-7--||
E-----------------5-5-5-5-5-5-5-5--||


Solo: Not 100%, but you can build off of it. (I tried)

e------------------------||------------------------||
B-17-15----15----15-15/--||--19-17----17----17-17--||
G-17-15-17-15-17-15-15/--||--19-17-19-17-19-17-17--||
D-------17----17---------||--------19----19--------||
A------------------------||------------------------||
E------------------------||------------------------||

e-----------------------||-------------------------||
B-----------------------||------------10/----------||
G-10----10----10----10--||--14^-12--12-------------||
D-10-12-10-12-10-12-10--||--------14---------------||
A----12----12----12-----||-------------------------||
E-----------------------||-------------------------||


Verse/Solo:
                 (play with drum fill)
e-----------------||---------------||
B-----------------||-5---5---5---5-||
G-----------------||-5-7-5-7-5-7-5-||
D-----------------||---7---7---7---||
A-9-9-9-9-7-7-7-7-||---------------||
E-7-7-7-7-5-5-5-5-||---------------||

e-----------------||----------------------||
B-----------------||-10----10----10----10-||
G-----------------||-10-12-10-12-10-12-10-||
D-----------------||----12----12----12----||
A-9-9-9-9-7-7-7-7-||----------------------||
E-7-7-7-7-5-5-5-5-||----------------------||

e-----------------||----------------------||
B-----------------||----------------------||
G-----------------||-17^-15--15-12--12^/--||
D-----------------||-------17-----14------||
A-9-9-9-9-7-7-7-7-||----------------------||
E-7-7-7-7-5-5-5-5-||----------------------||


Listen to the song for the timing
You can improvise the solo from what i've already put
Tap to rate this tab
# A B C D E F G H I J K L M N O P Q R S T U V W X Y Z