Song name
# A B C D E F G H I J K L M N O P Q R S T U V W X Y Z

Circle Jerks - Operation tab

HPLoveCraft:Since i boycott having to sign on websites to use forums and the like if u 
a comment on my tabs email me at magitsarchaic@yahoo.com thanx.

Intro/Verse:After the first two repititions it turns into the verse by palm muting the chords.

1|-----------------------------------------------------------------|
2|-----------------------------------------------------------------|
3|-5-5-5-5-5-5-5-5-3-3-3-3-3-3-3-3-1-1-1-1-1-1-1-1-3-3-3-3-3-3-3-3-|
4|-6-6-6-6-6-6-6-6-4-4-4-4-4-4-4-4-2-2-2-2-2-2-2-2-4-4-4-4-4-4-4-4-|
5|-6-6-6-6-6-6-6-6-4-4-4-4-4-4-4-4-2-2-2-2-2-2-2-2-4-4-4-4-4-4-4-4-|
6|-4-4-4-4-4-4-4-4-2-2-2-2-2-2-2-2-0-0-0-0-0-0-0-0-2-2-2-2-2-2-2-2-|

Chorus:this has two variations on it,the first two times he does the first one then the 
two he does the second variation.

                        Repeat with variation             Variation 1
1|----------------------------------------------|---------|---------|
2|----------------------------------------------|---------|---------|
3|10-10-10-10-10-10-10-10-10-10-10-10-6-6-6-6-6-|8-8-9-8-8|5-5-5-5-5|
4|11-11-11-11-11-11-11-11-11-11-11-11-7-7-7-7-7-|9-9-9-9-9|6-6-6-6-6|
5|11-11-11-11-11-11-11-11-11-11-11-11-7-7-7-7-7-|9-9-x-9-9|6-6-6-6-6|
6|-9--9--9--9--9--9--9--9--9--9--9--9-5-5-5-5-5-|7-7-7-7-7|4-4-4-4-4|

Variation 2

1|-----------------|
2|-----------------|
3|5-x-5-x-5-x-5-x-5|
4|6-x-6-x-6-x-6-x-6|
5|6-x-6-x-6-x-6-x-6|
6|4-x-4-x-4-x-4-x-4|
Tap to rate this tab
# A B C D E F G H I J K L M N O P Q R S T U V W X Y Z