Song name
# A B C D E F G H I J K L M N O P Q R S T U V W X Y Z

Circle Jerks - Live Fast Die Young tab

-------------------------------------------------------------------------------
                         LIVE FAST DIE YOUNG - Circle Jerks
-------------------------------------------------------------------------------
Tabbed by: min0r_threat
E-mail: ngrantj@yahoo.com

Tuning: Standard

VERSE
e|------------------------|
B|------------------------|
G|------------------------|
D|--4444-5555----7---7----|
A|--2222-3333--7-5-7-5----|
E|-------------5---5------|

CHORUS
e|-----------------------------------------------|
B|-----------------------------------------------|
G|-----------------------------------------------|
D|--9999-9999-7777-7777--------------------------|
A|--7777-7777-5555-5555--999-999-7--999-999-7----|
E|-----------------------777-777-5--777-777-5----|

BRIDGE
e|------------------|
B|------------------|
G|------------------|
D|--4444-5555-------|
A|--2222-3333--7----|
E|-------------5----|

OUTRO
e|-------------|
B|-------------|
G|-------------|
D|--4-4-4-4----|
A|--2-2-2-2----|
E|-------------|


SONG STRUCTURE:
VERSE x6
CHORUS x2
VERSE x4
CHORUS x2
BRIDGE x4 (on 4th replace 5-7 chord with 8 palm-muted -2-4's then 8 open -2-4's)
CHORUS x4
VERSE x8
OUTRO


And that's it!
Tap to rate this tab
# A B C D E F G H I J K L M N O P Q R S T U V W X Y Z