Song name
# A B C D E F G H I J K L M N O P Q R S T U V W X Y Z

Circle Jerks - Beverly Hills tab

Beverly hills
by CIRCLE JERKS

VERSE
p.m.~~~~~~~~~~~~~~~~~~~~~~~~~~~~~~
|---------------------------------|
|---------------------------------|
|---------------------------------|
|-----------------9-9-9-9---------|
|-6-6-6-6-6-6-6-6-7-7-7-7-7-7-9-9-|
|-4-4-4-4-4-4-4-4---------5-5-7-7-|

THAT OTHER PART
|-----0~-------0~-----|
|-----0~-------0~-----|
|-7-7------9-9--------|
|-7-7------9-9--------|
|-5-5------7-7--------|
|---------------------|

ENDING
p.m.~~~~~~~~~~~~~
|-------------------------|
|-------------------------|
|-----------------9-9-9-9-|
|-----------------9-9-9-9-|
|-6-6-6-6-6-6-6-6-7-7-7-7-|
|-4-4-4-4-4-4-4-4---------|

I dunno if that second part is right or not. Does it matter?
It sounds okay, so if you disagree, just don't play it.

HERE IS THE SONG ORDER:

INTRO (verse x2)
VERSE x4
That other part x4
VERSE x4
THAT OTHER PART x6
Ending x 1

questions and comments, e-mail hella-address@sbcglobal.net
Tap to rate this tab
# A B C D E F G H I J K L M N O P Q R S T U V W X Y Z