Song name
# A B C D E F G H I J K L M N O P Q R S T U V W X Y Z

Circle Jerks - Group Sex tab

not the greatest cd(still amazing tho), but difinately a funny ass song

tuning-standard-EADGBe

Chorus

1------------------------------|
2----10------------------------|
3-9--9-99--11--14--------------|
4-9--7-99--11--14--------------|
5-7----77--9---12--------------|
6------------------------------|
  GROUP    SEX

Verse

1------------------------------|
2------------------------------|
3-88888888888888-6-------------|
4-99999999999999-7-------------|
5-99999999999999-7-------------|
6-77777777777777-5-------------|

peace out
Tap to rate this tab
 
# A B C D E F G H I J K L M N O P Q R S T U V W X Y Z