Song name
# A B C D E F G H I J K L M N O P Q R S T U V W X Y Z

Circle Jerks - I Just Want Some Skank tab

This is one of the best circle Jerk songs and very easy to tab. im suprised theres only one other one



Verse
e------------------------------|
B-7-7-8-8-7-7-9-9--------------|
G-7-7-8-8-7-7-9-9--------------|
D-7-7-8-8-7-7-9-9--------------| x4
A-5-5-6-6-5-5-7-7--------------|
E------------------------------|


bridge
e------------------------------|
B------------------------------|
G----------9-9-9-9-------------|
D-77777777-9-9-9-9-------------| x2
A-77777777-7-7-7-7-------------|
E-55555555---------------------|


e------------------------------|
B-7-7-8-8-7-7-9-9--------------|
G-7-7-8-8-7-7-9-9--------------|
D-7-7-8-8-7-7-9-9--------------| x4
A-5-5-6-6-5-5-7-7--------------|
E------------------------------|


e-------------------------------|
B-------------------------------|
G--------7~---------------------|
D--------7~---------------------| 
A--------5~---------------------|
E-------------------------------|


Long Drum Fill
e------------------------------|
B------------------------------|
G-55-55-55-55------------------|
D-55-55-55-55------------------| 
A-33-33-33-33------------------|
E------------------------------|


Chorus
e------------------------------|
B------------------------------|
G-5555-2222--------------------|
D-5555-2222--------------------| x4
A-3333-0000--------------------|
E------------------------------|

e------------------------------|
B------------------------------|
G------------------------------|
D-7777-5-----------------------|
A-7777-5-----------------------| x4
E-5555-3-----------------------|


e------------------------------|
B------------------------------|
G-5555-2222--------------------|
D-5555-2222--------------------| x4
A-3333-0000--------------------|
E------------------------------|


e------------------------------|
B------------------------------|
G------------------------------|
D-7777-5-----------------------|
A-7777-5-----------------------| x4
E-5555-3-----------------------|


e------------------------------|
B-7-7-8-8-7-7-9-9--------------|
G-7-7-8-8-7-7-9-9--------------|
D-7-7-8-8-7-7-9-9--------------| x4
A-5-5-6-6-5-5-7-7--------------|
E------------------------------|

===========================================================================
Tap to rate this tab
 
# A B C D E F G H I J K L M N O P Q R S T U V W X Y Z