Song name
# A B C D E F G H I J K L M N O P Q R S T U V W X Y Z

Circle Jerks - Deny Everything tab

Help us improve GuitareTab! Take a short survey!
song: deny everything
by: circle jerks

verse
E--------------------------|
B--------------------------|
G--------------------------|
D-----9-----9-----9-----9--|
A--77-7-777-7-777-7-777-7--|
E--55---555---555---555----|

chorus
E---------------------------------------|
B---------------------------------------|
G---------------------------------------|
D-----------10101010----------10101010--|
A--10101010--8-8-8-8-10101010--8-8-8-8--|
E---8-8-8-8-----------8-8-8-8-----------|

bridge
E-------------|
B-------------|
G-------------|
D-------------|
A--5555-10-8--|
E--3333--8-6--|

timing:
verse...1x
chorus..1x
verse...1x
chorus..1x
bridge..4x
verse...1x
chorus..1x
Related for Deny Everything tab