Song name
# A B C D E F G H I J K L M N O P Q R S T U V W X Y Z

Circle Jerks - Back Against The Wall tab

HPLoveCraft:Since i boycott having to sign on websites to use forums and the like if u 
a comment on my tabs email me at magitsarchaic@yahoo.com thanx.

Intro: my favorite Circle Jerks song.

1|-3-2---------2-3-2---5-|
2|-----3-----3-------3---|
3|-------2-2-------------|
4|-----------------------|
5|-----------------------|
6|-----------------------|

Verse

1|-------------------------------------|
2|-------------------------------------|
3|-------------12-12-x-x-9-9-----------|
4|-x-x-9-9-x-x-12-12-x-x-9-9-x-x-12-12-|
5|-x-x-9-9-x-x-10-10-x-x-7-7-x-x-12-12-|
6|-x-x-7-7-x-x---------------x-x-10-10-|

Chorus

1|------------------------------------------------------------------------|
2|------------------------------------------------------------------------|
3|------------------------------------------------------------------------|
4|------------------------------------------------------------------------|
5|-2-2-2-2-2-2-2-2-2-2-2-2-2-2-2-2-5-5-5-5-5-5-5-5-5-5-5-5-5-5-5-5-2-2-2-2|
6|-0-0-0-0-0-0-0-0-0-0-0-0-0-0-0-0-3-3-3-3-3-3-3-3-3-3-3-3-3-3-3-3-0-0-0-0|

---------------------------------------------------------|
---------------------------------------------------------|
---------------------------------------------------------|
---------------------------------------------------------|
-2-2-2-2-2-2-2-2-2-2-2-2-5-5-5-5-5-5-5-5-7-7-7-7-7-7-7-7-|
-0-0-0-0-0-0-0-0-0-0-0-0-3-3-3-3-3-3-3-3-5-5-5-5-5-5-5-5-|

Verse(double speed)

1|-----------------------------------------|
2|-----------------------------------------|
3|---------12-12-12-12-9-9-9-9-------------|
4|-9-9-9-9-12-12-12-12-9-9-9-9-12-12-12-12-|
5|-9-9-9-9-10-10-10-10-7-7-7-7-12-12-12-12-|
6|-7-7-7-7---------------------10-10-10-10-|
Tap to rate this tab
 
# A B C D E F G H I J K L M N O P Q R S T U V W X Y Z