Song name
# A B C D E F G H I J K L M N O P Q R S T U V W X Y Z

Circle Jerks - Whats Your Problem tab

-------------------------------------------------------------------------------
			What's Your Problem - Circle Jerks
-------------------------------------------------------------------------------
Tabbed by:Darth_Vader
Email:giganticapple@hotmail.com
Tuning:EADGBE

I couldn't find a tab for this so I felt the need of tabbing this song. This 
tab goes out to anyone that is a circle jerk.

Intro/Verse
e|----------------------|-----------------------------|
B|----------------------|-----------------------------|
G|----------------------|-----------------------------|
D|-10-10-10-------10----|-7--7--7--------7------------|
A|-8--8--8--10-10-8--10-|-5--5--5--7--7--5--7---------|
E|----------8--8-----8--|----------5--5-----5---------|

Chorus
e|----------------------|-----------------------------|
B|----------------------|-----------------------------|
G|----------------------|-----------------------------|
D|--------5~------7~----|--------5~------7~-----------|
A|--------3~--5~--5~----|--------3~--5~--5~-----------|
E|-55555------3~--------|-55555------3~---------------|

Bridge(palm mute 1st time through)
e|----------------------|-----------------------------|
B|----------------------|-----------------------------|
G|----------------------|-----------------------------|
D|----------------------|-----------------------------|
A|-----------2~---5~----|-----------2~---5~---|-------|
E|-0~---3~--------------|--0~---3~--------------------|

SONG STRUCTURE:
intro 2x
verse 4x
chorus 4x
verse 4x
bridge 2x
verse 4x

thats the whole song if you can't play this then you suck
|
| /  slide up
| \  slide down
| h  hammer-on
| p  pull-off
| ~  vibrato
| +  harmonic
| x  Mute note
===============================================================================
Tap to rate this tab
 
# A B C D E F G H I J K L M N O P Q R S T U V W X Y Z