Song name
# A B C D E F G H I J K L M N O P Q R S T U V W X Y Z

Circle Jerks - All Wound Up tab

-------------------------------------------------------------------------------
			      ALL WOUND UP - Circle Jerks
-------------------------------------------------------------------------------
Tabbed by: Jon Brown
Email: familyguyantiflag@yahoo.com

Tuning: Standard

Chorus:

"All Wound up!  Ready to Go!!"
e|---------------------------------------------------------------------------|
B|---------------------------------------------------------------------------|
G|---------------------5-5--10-10--------------------------------------------|
D|--5-5-5-5---5-5-5-5--5-5--10-10--------------------------------------------|
A|--5-5-5-5---5-5-5-5--3-3--8--8---------------------------------------------|
E|--3-3-3-3---3-3-3-3--------------------------------------------------------|

Verse:


e|---------------------------------------------------------------------------|
B|---------------------------------------------------------------------------|
G|-----5--10--5-5------------------------------------------------------------|
D|--5--5--10--5-5--5---------------------------------------------------------|
A|--5--3--8---3-3--5---------------------------------------------------------|
E|--3--------------3---------------------------------------------------------|

Break-down:

e|---------------------------------------------------------------------------|
B|---------------------------------------------------------------------------|
G|-----------9-9-9-9---------------------------------------------------------|
D|--9-9-9-9--9-9-9-9--7-7-7-7--9-9-9-9---------------------------------------|
A|--9-9-9-9--7-7-7-7--7-7-7-7--9-9-9-9---------------------------------------|
E|--7-7-7-7-----------5-5-5-5--7-7-7-7---------------------------------------|

e|---------------------------------------------------------------------------|
B|---------------------------------------------------------------------------|
G|-------------------9-9-9-9-9-9-9-9-----------------------------------------|
D|--9-9-9-9-9-9-9-9--9-9-9-9-9-9-9-9--7-7-7-7-7-7-7-7--9-9-9-9-9-9-9-9-------|
A|--9-9-9-9-9-9-9-9--7-7-7-7-7-7-7-7--7-7-7-7-7-7-7-7--9-9-9-9-9-9-9-9-------|
E|--7-7-7-7-7-7-7-7-------------------5-5-5-5-5-5-5-5--7-7-7-7-7-7-7-7-------|

e|---------------------------------------------------------------------------|
B|---------------------------------------------------------------------------|
G|---------------------------------------------------------------------------|
D|--7-7-7-7-7-7-7-7-7-7-7-7-7-7-7-7--3-3-3-3-3-3-3-3-3-3-3-3-3---------------|
A|--7-7-7-7-7-7-7-7-7-7-7-7-7-7-7-7--3-3-3-3-3-3-3-3-3-3-3-3-3---------------|
E|--5-5-5-5-5-5-5-5-5-5-5-5-5-5-5-5--1-1-1-1-1-1-1-1-1-1-1-1-1---------------|



| /  slide up
| \  slide down
| h  hammer-on
| p  pull-off
| ~  vibrato
| +  harmonic
| x  Mute note
===============================================================================
Tap to rate this tab
# A B C D E F G H I J K L M N O P Q R S T U V W X Y Z