Song name
# A B C D E F G H I J K L M N O P Q R S T U V W X Y Z

Circle Jerks - Pattys Killing Mel tab

-------------------------------------------------------------------------------
			     PATTY'S KILLING MEL - Circle Jerks
-------------------------------------------------------------------------------
Tabbed by: Jon Brown
Email: familyguyantiflag@yahoo.com

Tuning: Standard

Intro:

e|---------------------------------------------------------------------------|
B|---------------------------------------------------------------------------|
G|----------7-7--5-5---------------------------5-5----------------5-5--7-7---|
D|-7-7-7-7--7-7--5-5--7-7-7-7-7-7-7-7-7-7-7-7--5-5--5-5--7-7-7-7--5-5--7-7---|
A|-7-7-7-7--5-5--3-3--7-7-7-7-7-7-7-7-7-7-7-7--3-3--5-5--7-7-7-7--3-3--5-5---|
E|-5-5-5-5------------5-5-5-5-5-5-5-5-5-5-5-5-------3-3--5-5-5-5-------------|

Verse (x2):

e|---------------------------------------------------------------------------|
B|---------------------------------------------------------------------------|
G|------------------------------5-5--7-7-------------------------------------|
D|-7-7-7-7-7-7-7-7-7-7-7-7-7-7--5-5--7-7-------------------------------------|
A|-7-7-7-7-7-7-7-7-7-7-7-7-7-7--3-3--5-5-------------------------------------|
E|-5-5-5-5-5-5-5-5-5-5-5-5-5-5-----------------------------------------------|

Pre-chorus:

e|---------------------------------------------------------------------------|
B|---------------------------------------------------------------------------|
G|-9-9-9-9-9-9-9-9-9-9-9-9-9-9-9-9-------------------------------------------|
D|-9-9-9-9-9-9-9-9-9-9-9-9-9-9-9-9-------------------------------------------|
A|-7-7-7-7-7-7-7-7-7-7-7-7-7-7-7-7-------------------------------------------|
E|---------------------------------------------------------------------------|

Chorus:

e|---------------------------------------------------------------------------|
B|---------------------------------------------------------------------------|
G|-------------------7-7-7-7-7-7-7-7-----------------------------------------|
D|--7-7-7-7-7-7-7-7--7-7-7-7-7-7-7-7-----------------------------------------|
A|--7-7-7-7-7-7-7-7--5-5-5-5-5-5-5-5-----------------------------------------|
E|--5-5-5-5-5-5-5-5----------------------------------------------------------|

Post-Chorus:

e|---------------------------------------------------------------------------|
B|---------------------------------------------------------------------------|
G|-9-9-9-9-9-9-9-9-9-9-9-9-9-9-9-9-------------------------------------------|
D|-9-9-9-9-9-9-9-9-9-9-9-9-9-9-9-9-------------------------------------------|
A|-7-7-7-7-7-7-7-7-7-7-7-7-7-7-7-7-------------------------------------------|
E|---------------------------------------------------------------------------|

Repeat All

Bridge:

"Patty?  Yes, Mel?"
e|---------------------------------------------------------------------------|
B|---------------------------------------------------------------------------|
G|--7-7---5-5----------------------------------------------------------------|
D|--7-7---5-5---5-5---2-2-2-2------------------------------------------------|
A|--5-5---3-3---5-5---2-2-2-2------------------------------------------------|
E|--------------3-3---0-0-0-0------------------------------------------------|




| /  slide up
| \  slide down
| h  hammer-on
| p  pull-off
| ~  vibrato
| +  harmonic
| x  Mute note
===============================================================================
Tap to rate this tab
 
# A B C D E F G H I J K L M N O P Q R S T U V W X Y Z