Song name
# A B C D E F G H I J K L M N O P Q R S T U V W X Y Z

Circle Of Contempt - Remnants Left tab

-------------------------------------------------------------------------------
Circle of Contempt : Remnants Left (Rhythm Guitar)
-------------------------------------------------------------------------------

Tabbed by: Foster (bornofmaya)
Website: http://www.last.fm/user/bornofmaya
Notes: I will be posting a full GP tab with both guitars soon.



                                                             PM   PM PM    
             E  E.  E  S Q    E.  E  S E     E  E.  E  E  E  S  S S  S  S  
D||-------|-------------------------------|-------------------------------|
A||-------|-------------------------------|-------------------------------|
F||-------|-------------------------------|-------------------------------|
C||-------|--------------1----------------|---------------1-------------4-|
G||-------|-------------------------------|-------------------------------|
C||-------|--0--1---0---------0---0----0--|--1--0---0--------0----0--1----|


                                                  PM   PM PM                
  E  E.  E  S Q    E.  E  S E     E  E.  E  E  E  S  S S  S  S E  E         
-------------------------------|-------------------------------------|-----|
-------------------------------|----------------------------------5--|-----|
-------------------------------|----------------------------------8--|-----|
--------------1----------------|---------------1-------------4-------|-----|
-------------------------------|-------------------------------------|-----|
--0--1---0---------0---0----0--|--1--0---0--------0----0--1----------|-----|


    E  E.  E  S Q    E.  E  S E     E  Q       E  E.  E  S Q    E.  E  S E   
|--------------------------------|----------|-------------------------------|
|--------------------------------|-----4----|-------------------------------|
|*-------------------------------|-----7----|-------------------------------|
|*--------------1----------------|----------|--------------1----------------|
|--------------------------------|----------|-------------------------------|
|---0--1---0---------0---0----0--|--1-------|--0--1---0---------0---0----0--|


                           PM  PM PM    
  H               H        E.  E  E  S  
--------------||-----------------------|
--------------||-----------------------|
-------------*||-----------------------|
-------------*||--0--------------------|
--------------||--0--------0---0--0----|
--2br---------||--0--------0---0--0----|


  PM PM PM PM   PM PM   PM PM   PM   PM      PM PM PM    PM PM   PM PM   PM     
  |--3--|                                                                       
  S  S  S  S  S S  S  S S  S  S E  S E  S    S  S  S  E  S  S  S S  S  S S  E   
------------------------------------------|------------------------------------|
------------------------------------------|------------------------------------|
------------------------------------------|------------------------------------|
------------------------------------------|------------------------------------|
------------------------------------------|------------------------------------|
--0--0--0--0----0--0----0--0----0----0----|--0--0--0-----0--0----0--0----0-----|


  PM PM PM PM   PM PM   PM PM   PM   PM      PM PM PM    PM PM   PM PM    PM    
  |--3--|                                                                       
  S  S  S  S  S S  S  S S  S  S E  S E  S    S  S  S  E  S  S  S S  S  E  S  S  
------------------------------------------|------------------------------------|
------------------------------------------|------------------------------------|
------------------------------------------|------------------------------------|
------------------------------------------|------------------------------------|
------------------------------------------|------------------------------------|
--0--0--0--0----0--0----0--0----0----0----|--0--0--0-----0--0----0--0-----0----|


  PM PM PM PM   PM PM   PM PM   PM   PM      PM PM PM    PM PM   PM PM   PM     
  |--3--|                                                                       
  S  S  S  S  S S  S  S S  S  S E  S E  S    S  S  S  E  S  S  S S  S  S S  E   
------------------------------------------|------------------------------------|
------------------------------------------|------------------------------------|
------------------------------------------|------------------------------------|
------------------------------------------|------------------------------------|
------------------------------------------|------------------------------------|
--0--0--0--0----0--0----0--0----0----0----|--0--0--0-----0--0----0--0----0-----|


  PM PM PM PM   PM PM   PM PM   PM   PM   PM PM PM         
  |--3--|                                                  
  S  S  S  S  S S  S  S S  S  S E  S E  S S  S  S  S       
-----------------------------------------------------|----|
-----------------------------------------------------|----|
-----------------------------------------------------|----|
-----------------------------------------------------|----|
-----------------------------------------------------|----|
--0--0--0--0----0--0----0--0----0----0----0--0--0----|----|


  PM PM PM PM   PM PM   PM PM   PM   PM      PM PM PM    PM PM   PM PM          
  |--3--|                                                                       
  S  S  S  S  S S  S  S S  S  S E  S E  S    S  S  S  E  S  S  S S  S  S E.     
------------------------------------------|------------------------------------|
------------------------------------------|------------------------------------|
------------------------------------------|------------------------------------|
------------------------------------------|------------------------------------|
------------------------------------------|------------------------------------|
--0--0--0--0----0--0----0--0----0----0----|--0--0--0-----0--0----0--0----1br---|


  PM PM PM PM   PM PM   PM PM             PM PM PM    PM PM   PM PM    PM    
  |--3--|                                                                    
  S  S  S  S  S S  S  S S  S  S Q         S  S  S  E  S  S  S S  S  E  S  S  
---------------------------------------|------------------------------------|
---------------------------------------|------------------------------------|
---------------------------------------|------------------------------------|
---------------------------------------|------------------------------------|
---------------------------------------|------------------------------------|
--0--0--0--0----0--0----0--0----1br----|--0--0--0-----0--0----0--0-----0----|


  PM PM PM PM   PM PM   PM PM   PM   PM    
  |--3--|                                  
  S  S  S  S  S S  S  S S  S  S E  S E  S  
------------------------------------------|
------------------------------------------|
------------------------------------------|
------------------------------------------|
------------------------------------------|
--0--0--0--0----0--0----0--0----0----0----|


  PM PM PM    PM PM   PM PM        PM PM PM PM  
                                   |--3--|      
  S  S  S  E  S  S  S S  S  S E    S  S  S  S   
-----------------------------------------------|
-----------------------------------------------|
-----------------------------------------------|
-----------------------------------------------|
-----------------------------------------------|
--0--0--0-----0--0----0--0----1br--0--0--0--0--|


  PM PM          PM PM                                                 
  S  S  E  E  E  S  S  S  S S  S E       E  E.  E  S Q    E.  E  S E   
--------------------------------------|-------------------------------|
--------------------------------------|-------------------------------|
--------------------------------------|-------------------------------|
----------------------------3h-6------|--------------1----------------|
--------2--------------2h-5-----------|-------------------------------|
--0--0-----6--3--0--0------------1br--|--0--1---0---------0---0----0--|


  E  Q       E  E.  E  S Q    E.  E  S E     H           
----------|-------------------------------|-------------|
-----4----|-------------------------------|-------------|
-----7----|-------------------------------|-------------|
----------|--------------1----------------|-------------|
----------|-------------------------------|-------------|
--1-------|--0--1---0---------0---0----0--|--2br--------|


  E  E.  E  S Q    E.  E  S E     E  Q       E  E.  E  S Q    E.  E  S E   
-------------------------------|----------|-------------------------------|
-------------------------------|-----4----|-------------------------------|
-------------------------------|-----7----|-------------------------------|
--------------1----------------|----------|--------------1----------------|
-------------------------------|----------|-------------------------------|
--0--1---0---------0---0----0--|--1-------|--0--1---0---------0---0----0--|


  PM   PM PM                                                 
  S  S S  S   Q        W                   W                 
--------------------|-------------------|-------------------|
--------------------|-------------------|-------------------|
--------------------|--9----------------|--L----------------|
--------------------|--7----------------|--L----------------|
--------------------|--7----------------|--L----------------|
--0----0--1--12\----|-------------------|-------------------|


  W                   W                 
-------------------|-------------------|
-------------------|-------------------|
--L----------------|--L----------------|
--L----------------|--L----------------|
--L----------------|--L----------------|
-------------------|-------------------|


    PM PM   PM PM   PM   PM PM    PM PM    
    S  S  S S  S  S E  S S  S  E  S  S  S  
|-----------------------------------------|
|-----------------------------------------|
|*----------------------------------------|
|*----------------------------------------|
|---7--7----7--7----7----7--7-----7--7----|
|---7--7----7--7----7----7--7-----7--7----|


  PM   PM PM PM   PM PM   PM   PM PM    PM PM   PM PM   PM   PM PM    PM PM    
  E  S S  S  S  S S  S  S S  S S  S     S  S  S S  S  S E  S S  S  E  S  S  S  
-------------------------------------|----------------------------------------|
-------------------------------------|----------------------------------------|
-------------------------------------|----------------------------------------|
-------------------------------------|----------------------------------------|
--7----7--7--7----7--7----5----5--5--|--3--3----3--3----3----3--3-----3--3----|
--7----7--7--7----7--7----5----5--5--|--3--3----3--3----3----3--3-----3--3----|


  PM   PM PM PM   PM PM   PM   PM PM    
  E  S S  S  S  S S  S  S S  S S  S     
--------------------------------------||
--------------------------------------||
-------------------------------------*||
-------------------------------------*||
--3----3--3--3----3--3----5----5--5---||
--3----3--3--3----3--3----5----5--5---||


  PM PM   PM PM   PM   PM PM    PM PM      PM   PM PM PM   PM PM   PM   PM PM  
  S  S  S S  S  S E  S S  S  E  S  S  S    E  S S  S  S  S S  S  S S  S S  S   
----------------------------------------|-------------------------------------|
----------------------------------------|-------------------------------------|
----------------------------------------|-------------------------------------|
----------------------------------------|-------------------------------------|
--0--0----0--0----0----0--0-----0--0----|--0----0--0--0----0--0----0----0--0--|
--0--0----0--0----0----0--0-----0--0----|--0----0--0--0----0--0----0----0--0--|


  PM PM   PM PM   PM   PM PM    PM PM      PM   PM PM PM   PM PM   PM   PM PM  
  S  S  S S  S  S E  S S  S  E  S  S  S    E  S S  S  S  S S  S  S S  S S  S   
----------------------------------------|-------------------------------------|
----------------------------------------|-------------------------------------|
----------------------------------------|-------------------------------------|
----------------------------------------|-------------------------------------|
--3--3----3--3----3----3--3-----3--3----|--3----3--3--3----3--3----5----5--5--|
--3--3----3--3----3----3--3-----3--3----|--3----3--3--3----3--3----5----5--5--|


  PM PM   PM PM   PM   PM PM    PM PM      PM   PM PM PM   PM PM   PM   PM PM  
  S  S  S S  S  S E  S S  S  E  S  S  S    E  S S  S  S  S S  S  S S  S S  S   
----------------------------------------|-------------------------------------|
----------------------------------------|-------------------------------------|
----------------------------------------|-------------------------------------|
----------------------------------------|-------------------------------------|
--0--0----0--0----0----0--0-----0--0----|--0----0--0--0----0--0----0----0--0--|
--0--0----0--0----0----0--0-----0--0----|--0----0--0--0----0--0----0----0--0--|


  PM PM   PM PM   PM   PM PM    PM         
  S  S  S S  S  S E  S S  S  E  S   Q      
------------------------------------------|
------------------------------------------|
------------------------------------------|
------------------------------------------|
--3--3----3--3----3----3--3-----3---------|
--3--3----3--3----3----3--3-----3--12\----|


    PM PM   PM PM   PM   PM PM    PM PM    
    S  S  S S  S  S E  S S  S  E  S  S  S  
|-----------------------------------------|
|-----------------------------------------|
|*----------------------------------------|
|*----------------------------------------|
|---0--0----0--0----0----0--0-----0--0----|
|---1--1----1--1----1----1--1-----1--1----|


  PM   PM PM PM   PM PM   PM   PM PM         PM PM    PM PM PM PM    PM PM  
  E  S S  S  S  S S  S  S S  S S  S       E  S  E  E  S  S  S  E  E  S  S   
--------------------------------------||-----------------------------------|
--------------------------------------||-----------------------------------|
-------------------------------------*||-----------------------------------|
-------------------------------------*||--0--------0--------------0--------|
--0----0--0--0----0--0----0----0--0---||-----0--0-----0--0--0--0-----0--0--|
--1----1--1--1----1--1----1----1--1---||-----1--1-----1--1--1--1-----1--1--|


  PM    PM PM    PM PM PM PM PM       PM PM                            
                 |--3--|                                               
  E  E  S  E  E  S  S  S  S  E  E     S  E  S. S S. S  S S  S  S Q     
-----------------------------------|----------------------------------|
-----------------------------------|----------------------------------|
-----------------------------------|---------------------5h-8p-5------|
-----0--------0-----------------0--|----------------4h-7---------7----|
--0-----0--0-----0--0--0--0--0-----|--0--0----------------------------|
--1-----1--1-----1--1--1--1--1-----|--1--1--0--1-0--------------------|


    PM PM   PM PM   PM   PM PM    PM PM    
    S  S  S S  S  S E  S S  S  E  S  S  S  
|-----------------------------------------|
|-----------------------------------------|
|*----------------------------------------|
|*----------------------------------------|
|---0--0----0--0----0----0--0-----0--0----|
|---1--1----1--1----1----1--1-----1--1----|


  PM   PM PM PM   PM PM   PM   PM PM         PM PM    PM PM PM PM    PM PM  
  E  S S  S  S  S S  S  S S  S S  S       E  S  E  E  S  S  S  E  E  S  S   
--------------------------------------||-----------------------------------|
--------------------------------------||-----------------------------------|
-------------------------------------*||-----------------------------------|
-------------------------------------*||--0--------0--------------0--------|
--0----0--0--0----0--0----0----0--0---||-----0--0-----0--0--0--0-----0--0--|
--1----1--1--1----1--1----1----1--1---||-----1--1-----1--1--1--1-----1--1--|


  PM    PM PM    PM PM PM PM PM       PM PM                
                 |--3--|                                   
  E  E  S  E  E  S  S  S  S  E  E     S  E  E  Q.       S  
-----------------------------------|----------------------|
-----------------------------------|----------------------|
-----------------------------------|----------------------|
-----0--------0-----------------0--|----------------------|
--0-----0--0-----0--0--0--0--0-----|--0--0----------------|
--1-----1--1-----1--1--1--1--1-----|--1--1--0--2br--------|


    E  E  E  E  E  E  E  E     E  E  E  E  E  E  E  E   
|---------------------------|--------------------------|
|---------------------------|--------------------------|
|*--------------------------|--------------------------|
|*--7--7--7--7--7--7--7--7--|--7--7--7--7--7--7--7--7--|
|---7--7--7--7--7--7--7--7--|--7--7--7--7--7--7--7--7--|
|---7--7--7--7--7--7--7--7--|--7--7--7--7--7--7--7--7--|


  E  E  E  E  E  E  E  E     E  E  E  E  E  E  E  E     
--------------------------|---------------------------||
--------------------------|---------------------------||
--------------------------|--------------------------*||
--3--3--3--3--3--3--3--3--|--3--3--3--3--3--3--5--5--*||
--3--3--3--3--3--3--3--3--|--3--3--3--3--3--3--5--5---||
--3--3--3--3--3--3--3--3--|--3--3--3--3--3--3--5--5---||


   PM PM   PM PM   PM   PM PM    PM PM      PM   PM PM PM   PM PM   PM   PM PM  
   S  S  S S  S  S E  S S  S  E  S  S  S    E  S S  S  S  S S  S  S S  S S  S   
-----------------------------------------|-------------------------------------|
-----------------------------------------|-------------------------------------|
*----------------------------------------|-------------------------------------|
*----------------------------------------|-------------------------------------|
---0--0----0--0----0----0--0-----0--0----|--0----0--0--0----0--0----0----0--0--|
---0--0----0--0----0----0--0-----0--0----|--0----0--0--0----0--0----0----0--0--|


  PM PM   PM PM   PM   PM PM    PM PM    
  S  S  S S  S  S E  S S  S  E  S  S  S  
----------------------------------------|
----------------------------------------|
----------------------------------------|
----------------------------------------|
--3--3----3--3----3----3--3-----3--3----|
--3--3----3--3----3----3--3-----3--3----|


  PM   PM PM PM   PM PM   PM   PM PM                                            
  E  S S  S  S  S S  S  S S  S S  S       W                   W                 
--------------------------------------||-------------------|-------------------|
--------------------------------------||-------------------|-------------------|
-------------------------------------*||-------------------|-------------------|
-------------------------------------*||--7----------------|--L----------------|
--3----3--3--3----3--3----5----5--5---||--7----------------|--L----------------|
--3----3--3--3----3--3----5----5--5---||--7----------------|--L----------------|


  W                   W                  
-------------------|-------------------||
-------------------|-------------------||
-------------------|-------------------||
--L----------------|--L----------------||
--L----------------|--L----------------||
--L----------------|--L----------------||




Duration Legend
---------------
W - whole
H - half
Q - quarter
E - 8th
S - 16th
T - 32nd
X - 64th
. - note dotted
|-n-|  - n-tuplets


Tablature Legend
----------------
L - tied note
x - dead note
g - grace note
(n) - ghost note
> - accentuded note
NH - natural harmonic
AH - artificial harmonic
TH - tapped harmonic
SH - semi harmonic
PH - pitch harmonic
h - hammer on
p - pull off
b - bend
br - bendRelease
pb - preBend
pbr - preBendRelease
brb - bendReleaseBend
\n/ - tremolo bar dip
\n - tremolo bar dive
-/n - tremolo bar Release up
/n\ - tremolo bar inverted dip
/n - tremolo bar return
-\n - tremolo bar Release down
S - shift slide
s - legato slide
/ -  slide into from below or out of upwards
\ -  slide into from above or out of downwards
~ - vibrato
W - wide vibrato
tr - trill
TP - tremolo picking
T - tapping
S - slap
P - pop
< - fade in
^ - brush up
v - brush down
Tap to rate this tab
# A B C D E F G H I J K L M N O P Q R S T U V W X Y Z