Song name
# A B C D E F G H I J K L M N O P Q R S T U V W X Y Z

Circle Takes The Square - Disclaimer To The Self tab

0:00 - 0:23
E---------------------------------|
B---------------------------------|
G-12--12--12-12-12--12--11-11-----|
D---------------------------------|
A-10--10--10-10-10--10---9--9-----|
E---------------------------------|

0:24 - 0:34
E---------------------------------|
B---------------------------------|
G---------------------------------|
D-2-2-2--4--2--4-4--5-5-5---------|
A-2-2-2--4--2--4-4--5-5-5---------|
E-0-0-0--2--0--2-2--3-3-3---------|
  . . .

End
E---------------------------------|
B---------------------------------|
G---------------------------------|
D-2-2-2-2-------------------------|
A-2-2-2-2-------------------------|
E-0-0-0-0-------------------------|
  . . . .

Hope you like it... [ZepteruS]

Tap to rate this tab
 
# A B C D E F G H I J K L M N O P Q R S T U V W X Y Z