Song name
# A B C D E F G H I J K L M N O P Q R S T U V W X Y Z

Circle Takes The Square - Interview At The Ruins tab

-----------------------------------------------------------------------------
    Interview At The Ruins by Circle Takes The Square
-----------------------------------------------------------------------------
Tabbed by: menidi
E-mail: guilhermefreitas.guitar@gmail.com

Tuning: Standard

Acoustic Intro:

e|--4---4----4----4----4----4----4----4-----4----4----4----4----------------|
B|--------4----4----3----3----3----3-----4----4----4----4-------------------|
G|--------------------------------------------------------------------------|
D|--------------------------------------------------------------------------|
A|--------------------------------------------------------------------------|
E|---------------------------------------------------------4----------------|

Do this twice:
e|------4----4----4----4-----4----4----4----4--------4----4----4----4-------|
B|---4----4----4----4-----------------------------3----3----3----3----------|
G|--------------------------------------------------------------------------|
D|--------------------------------------------------------------------------|
A|--------------------------------------------------------------------------|
E|---------------------4--4----4----4----4----------------------------------|


Clean guitar part:

e|------4---4---4-------4---4---0---------------0--0--0--------7-6--------|
B|--------4---4---4-------4---4---4-------------12-11-8------------8------|
G|------------------------------------------------------------------------|
D|------------------------------------------------------------------------|
A|----------------------------------------------------2-------------------|
E|---4---------------2---------------0------------------------------------|

e|-------4--------4---------4-----0---------------0--0--0---------|
B|------------------------4-----------------------5--4--8---------|
G|----------------------------------------------------------------|
D|----------------------------------------------------------------|
A|-----------------------------------2----------------------------|
E|---4--------4------2-------------------------------------0------|


"Verse": 

e|----------------------------------------------------------------|
B|------------------------12-11-9---4---5-------------------------|
G|-----------------------------------------x4---------------------|
D|---9-8-6---8---9--x4-----------------------------6~-------------|
A|---9-8-6---6---7---------------------------------6~-------------|
E|---7-6-4---6---7---------------------------------4~-------------|


"Verse" part2: do it twice

e|-------------------------------------------------------------0------------|
B|---------0-------0-------0-------0--------0-------0----0-------0---0------|
G|-------3---3---3-------3---3---3--------3---3---3--------3-------3--------|
D|-----1-------1-------1-------1--------1-------1------------1--------------|
A|------------------------------------2-------------------------------------|
E|---4---------------2---------------------------------0--------------------|


Interlude: (this goes till the Outro)

e|-------------------------------0-------0-------0-------0------|
B|-------0-0-----0-0-----0-----4---4---4---4---4---4---4---4----|
G|---3h4-4-4-3h4-4-4-3h4-4---4-------4-------4-------4----------|
D|--------------------------------------------------------------|
A|--------------------------------------------------------------|
E|--------------------------------------------------------------|

e|-------------------------------0----------0----------------|
B|-------0-0-----0-0---------------0----------0--------------|
G|---6h8-----6h8-----8p6-6h8-8h9-----9--8h9-----9--8h9-8p6---|
D|-----------------------------------------------------------|
A|-----------------------------------------------------------|
E|-----------------------------------------------------------|


Interlude pt2: x2 (let ring)

e|-----------------------4-------4---------------------------------|
B|---------0---------------4---4---4---4-----------0-----0---------|
G|-----------3-----------------------------------3-----3---3-------|
D|---------------------------6-------6---------------4-------6~----|
A|------6------6/7----6--------------------------------------------|
E|---4-------------4--------------------------2--------------------|

e|---------------------------------------|                     
B|--------0-0-----0-0--------------------|
G|----3h4-4-4-3h4-4-4-3h4-4p3------------|
D|---------------------------------------|
A|---------------------------------------|
E|---------------------------------------|


Outro:

e|----------------------------------|
B|----------------------------------|
G|----------------4-----------------|
D|----6-----4-----4-----2-----------|
A|----6-----4-----2-----2-----------|    
E|----4-----2-----------0-----------|
Tap to rate this tab
 
# A B C D E F G H I J K L M N O P Q R S T U V W X Y Z