Song name
# A B C D E F G H I J K L M N O P Q R S T U V W X Y Z

Circle Takes The Square - A Crater To Cough In tab

This song intro is pretty easy and straight forward.
All the tabs I've seen on here were all wrong, and I'm nearly 100% positive this is correct.

E----7--5--7--------3--5--3-----5p3--|
B-------------5--5-------------------|
G---------------------------0--------|
D------------------------------------|
A------------------------------------|
E------------------------------------|
play till 2:50
then
E----5--3--0--0h3--3--0--3--0--|
B------------------------------|
G------------------------------|
D------------------------------|
A------------------------------|
E------------------------------|  x1

E----0h5--0--0h3--3--0--3--0---|
B------------------------------|
G------------------------------|
D------------------------------|
A------------------------------|
E------------------------------|
Play till 4:20


-tabs by Spockguy

Enjoy
Tap to rate this tab
# A B C D E F G H I J K L M N O P Q R S T U V W X Y Z