Song name
# A B C D E F G H I J K L M N O P Q R S T U V W X Y Z

Circle Takes The Square - Fallen Constellation tab

this is in drop d tuning, and is how they play it live, but in  it's played in the recording
you have to know it pretty well to get it

Fade in whith volume pedal, have delay effect running
E----------------|
B----------------|
G----------------|
D-7-8-7-8-7-8-7~-|
A-5-5-5-5-5-5-5~-|
D----------------|


"Fallow feilds have fallen"
turn off delay effect
E-----------------|
B-----------------|
G-----------------|
D-7-8-7-8-7--3~---|
A-5-5-5-5-5--5~---|
D-0-0-0-0-0--0~---|

E------------|
B------------|
G------------|
D---------0~-|
A-3--2----0~-|
D-3--2----0~-|

"..of the scorpian sun, to impale the impaling impaled"
E--------------------------|
B--------------------------|
G--------------------------|
D-7-8-7--7-8-7-8-7--7-3~---|
A-5-5-5--5-5-5-5-5--5-5~---|
D-0-0-0--0-0-0-0-0--0-0~---|

"beg for drowning"
E----------------|
B----------------|
G-7---9---10---9-|
D-0---0----0---0-|
A----------------|
D----------------|

"......Impermenance"
E------|
B------|
G------|
D-3--2-|
A-3--2-|
D-3--2-|

E----------------------|
B----------------------|
G----------------------|
D-7-8-7-8-7--3---3-5-3-|
A-5-5-5-5-5--5---5-5-5-|
D-0-0-0-0-0--0---0-0-0-|


this is all I know so far
contact me at bullram13@hotmail.com
Tap to rate this tab
# A B C D E F G H I J K L M N O P Q R S T U V W X Y Z