Song name
# A B C D E F G H I J K L M N O P Q R S T U V W X Y Z

Circle Takes The Square - Houdini Logic tab

my first tab...this band is great


e----------0---------0------------------|
b-----4---------4----------4----4-------|
g--6----6----6----6-----6----6----------|
d---------------------------------------|
a---------------------------------------|
E---------------------------------------|X2

e----------5---------5------------------|
b-----4---------4----------4----4-------|
g--6----6----6----6-----6----6----------|
d---------------------------------------|
a---------------------------------------|
e---------------------------------------|X2

Just keep repeating that over and over.
Tap to rate this tab
# A B C D E F G H I J K L M N O P Q R S T U V W X Y Z