Song name
# A B C D E F G H I J K L M N O P Q R S T U V W X Y Z

Circle Takes The Square - Interview At The Ruins tab

E----------------------------------------------------------|
B----9---9---9---9---9--9---9---9--------------------------| repeat this a
G------8---8---8---8---7--7---7---7------------------------| few times. 
D----------------------------------------------------------|
A----------------------------------------------------------|
E----------------------------------------------------------|



E----------------------------------------------------------|this is just the
B--------0-------0---------0-------0-----------------------|basic idea, its 
G------3---3---3---------3---3---3-------------------------|a little
D----1-------1---------1-------1---------------------------|different in the
A----------------------------------------------------------|song.
E--4-----------------2----------------0~-------------------|


E------7-6-----76----------------------7-6-----------------|this is a 
B----------8~-----8-9---9---9---9------------8~------------|little iffy 
G---------------------8---8---8---8------------------------|also.
D----------------------------------------------------------|
A----------------------------------------------------------|
E----------------------------------------------------------|


E----------------------------------------------------------|
B----------------------------------------------------------|repeat this
G----------------------------------------------------------|a few times.
D----------------------------------------------------------|
A---10-9-7--2~-2~------------------------------------------|
E----8-7-5--0~-1~------------------------------------------|


E----------------------------------------------------------|
B---12--11--9~---4~-5~-------------------------------------|This is the
G----------------------------------------------------------|second guitar
D----------------------------------------------------------|part, aslo
A----------------------------------------------------------|repeat this
E----------------------------------------------------------|a few times.


E----------------------------------------------------------|
B--------0-------0--------0------0----------0-------0------|
G------3---3---3--------3---3--3----------3---2---3--------|
D----1-------1--------1------1----------1-------1----------|
A-------------------------------------2~-------------------|
E--4~---------------2~-------------------------------------|


E--------0-------------------------------------------------|
B------0---0---0-------------------------------------------|
G----3-------3---------------------------------------------|
D----------------------------------------------------------|
A----------------------------------------------------------|
E--0~------------------------------------------------------|


E----------------------------------------------------------|
B-----0~---0~---0~-------5---------5--------5--------5-----|
G---/8--/8---/8------6-8---8---6-8---8--6-8---8--6-8---8---|
D----------------------------------------------------------|
A----------------------------------------------------------|
E----------------------------------------------------------|


E----------------------------------------------------------|
B------0~----0~-------0-------0~----0~---------------------|
G---/8-8~-/8-8~--/8-8---8--/9-9~-/9-9~---------------------|
D----------------------------------------------------------|
A----------------------------------------------------------|
E----------------------------------------------------------|

I know there are a lot of other parts, but im having trouble figureing
them out
Tap to rate this tab
 
# A B C D E F G H I J K L M N O P Q R S T U V W X Y Z