Guitaretab - guitar tabs
Song name
# A B C D E F G H I J K L M N O P Q R S T U V W X Y Z

Ciro Y Los Persas - Insisto tab

Intro:
Riff
               E
e|----0---0---0---0---0---0---0--|--|
b|4/5---4---2---0---------------0|--|
g|------------------2---1---2----|x2|
d|-------------------------------|--|
a|-------------------------------|--|
E|-------------------------------|--|

Estrofa:
E
Yo la vi sin querer, buscaba alguna mujer
C#m
que fuera el viento, fuera el viento en mi cien.
E
Y la vi, que va a ser, una hermosa lucifer,
C#m
robo mi tiempo, mi pensamiento y mi fé,
  A               E  (Riff)
Y dejo detras de si
C#m                         G# (fill)
tristes versos que oigo en mi.

Fill:
e|---------|
b|---------|
g|5b6p5----|
d|------6--|
a|--------6|
E|---------|


(Intro)

E
Y que mas, tarde gris, te diria, que decis
C#m
si te olvidaste, si te olvidaste de mi.
E
Si no fui, mejor postor, fue aquel maldito temor
C#m
si yo pedia, vos te alejabas de mi
A                 E (riff)
Y quebro mi corazon
 C#m                  G#  (fill)    A
como se quiebra un carbon encendido ohhhhh

Estribillo:
G
si yo te volviera a ver
Bm               A
insisto, siempre te voy a querer
        G
insisto, aunque el tiempo diga no
Bm          A
insisto, nunca morira este amor.
[ Tab from: http://www.guitaretab.com/c/ciro-y-los-persas/284971.html ]
                           E
e|------------------------------------------|
b|----------------9-9-----9-9h10p9----------|
g|--------------9-9-9-11p9--------11p9------|
d|----------9-11----------------------11p9--|
a|---7-9/11-------------------------------11|
E|7-9---------------------------------------|

             C#m                    E
e|------------------------------|--------|--|
b|------------------------------|-9b10~--|--|
g|-9-9-------------------9--9---|-9b~----|x8|
d|-----11-----9--9h11---------11|--------|--|
a|---------11---------11--------|--------|--|
E|------------------------------|--------|--|
                  C#m
e|------------------------------------------|
b|------------11----------------------------|
g|---------9----11-----------11b13--11p9-11b|
d|-9-9h11----------9----9h11----------------|
a|------------------------------------------|
E|------------------------------------------|

a|----------------------------|
E|----------------------12/14-|
a|--------------------9-------|
E|-------------9-9h11---------|
a|------9-9/11----------------|
E|-9/11-----------------------|


A                 E (riff)
Y quebro mi corazon
 C#m                  G#  (fill)        A
como se quiebra un carbon encendido ohhhhh

Estribillo:
G
si yo te volviera a ver
Bm               A
insisto, siempre te voy a querer
        G
insisto, una hermosa lucifer
Bm          A
insisto, un demonio hecho mujer.
A                     G
insisto, aunque el tiempo diga no
Bm              A               G5
insisto, nunca morira este amor.


A        G      Bm     A
Hohohohohooo hohohohohoooo

(Intro)

E
Nunca me perdonare, no haber hecho mas nose
C#m
el tiempo todo destruye, todo lo se.
Related for Insisto tab
Insisto chords by Ciro Y Los Persas