Song name
# A B C D E F G H I J K L M N O P Q R S T U V W X Y Z

Cirque Du Soleil - Alegria tab

Fingerpicking arrangement of the song "Alegria".

Tuning: D

e|-0-2-3-0--------0-3-5-7-3---5---7-8-7-3---------3-5-7-3---5--3-2-0----|
B|--------------------------3-3-----------3-2---3---------3-3------0----|
G|------------------------------------------2---------------------------|
D|----------------------------0-----------------------------0-----------|
A|------------------------------------------0---------------------------|
E|-----0----------------3-------------0---------------3------------0----|

e|---7-8-10------------7----------|
B|-8--------12-10-8-10---8--------|
G|-------------------------9-11-8-|
D|--------------------------------|
A|-------10------------7----------|
E|-------------10----------8-7--5-|

e|-0-3-5-7-3---5---7-8-7-3---------3-5-7-3---5--3-2-0------0*-|
B|-----------3-3-----------3-2---3---------3-3------0----0*---|
G|-------------2-------------2---------------2------0--0*-----|
D|-------------0-------------2---------------0------2---------|
A|---------------------------0----------------------2---------|
E|-------3-------------0---------------3------------0---------|
Tap to rate this tab
 
# A B C D E F G H I J K L M N O P Q R S T U V W X Y Z