Song name
# A B C D E F G H I J K L M N O P Q R S T U V W X Y Z

Cities - Capitol tab

Capitol
By Cities: the greatest band of all time


If you want this to sound like the CD, yune down a half step


Intro line:

---------------------------------------------|
---------------------------------------------|
----1---2---4---5---1---2--------------------|
-----------------------------1----2----------|
--0---0---0---0---0---0---0----0-------------|
---------------------------------------------| Play this throughout the verse


Lead Line:

------------12-----------------------------------------|
--10----10-----10----9--10--------9--10----------9--8--|
--------------------------------9----------------------|
-----7-------------7---------------------------7-------|
-------------------------------------------------------|
-------------------------------------------------------|
Keep repeating over the verse part


CHORUS:

   F          C        B
------------------------------------|
------------------------------------|
---10-------------------------------|
---10-x16-----10-------9------------|
---8----------10-x9----9-x8---------|
--------------8--------7------------|


Second time around, chorus ends strumming E, then goes into the most badass line I've 
heard...


---------------------5--5--7------5--5--7------5--5------|
---------------------5--5--5------5--5--5------5--5------|
--12--12--12--9------5--5--5------5--5--5------5--5------|
---------------------------------------------------------|
--10--10--10--7--------------------------------------0---|
---------------------------------------------------------|Keep repeating


That part's joined by this speed picking part

----------------------|
----------------------|
----------------------|
--2-2-2-2-2-2-2-2-2-2-|
----------------------|
----------------------|Just drone over the other part for a while


Buy this CD.

http://www.yeproc.com/artist_info.php?artistId=10125
Tap to rate this tab
# A B C D E F G H I J K L M N O P Q R S T U V W X Y Z