Song name
# A B C D E F G H I J K L M N O P Q R S T U V W X Y Z

Citipointe - All That I Am tab

Title: All That I am
SubTitle: Guitar Intro
Artist: Citipointe
Tabber: macky pogi
Tempo = 81

[KEY OF B]

INTRO CHORDS = G#m - F# - B - C#m
Intro note = eight note

E |-------------------------------------------------------------------|
B |-------------------------------------------------------------------|
G |-----------------8--8----------------------------------------------|
D |--6--6--9--9---------9--9--6--6--9--9--8--8--9--9------------------|
A |-------------------------------------------------------------------|
E |-------------------------------------------------------------------|


------------------------------------------------------------------------|
------------------------------------------------------------------------|
-----------------8--8----------------6--6-------------------------------|
--6--6--9--9--------9--9--6--6---------9--9--8--8-----------------------|
------------------------------------------------------------------------|
------------------------------------------------------------------------|

PRE CHORUS CHORDS = E - F# - E - F#
CHORUS CHORDS = B - F# - E - G#m - F#
-------------------------------------
its a nice song don't be hard in this tab
comment is free
macky_v@yahoo.com
Tap to rate this tab
 
# A B C D E F G H I J K L M N O P Q R S T U V W X Y Z