Song name
# A B C D E F G H I J K L M N O P Q R S T U V W X Y Z

Citizen Cope - Let The Drummer Kick tab

Help us improve GuitareTab! Take a short survey!
artist:citizen cope
album:citizen cope
by:mr.guitarslayer@myspace.com
tuning:(E,a,d,g,b,e)

(intro)
e----------------------------------------------|
b----13----------------------------------------|
g----------------------------------------------|
d----------------------------------------------|
a----------------------------------------------|
E----------------------------------------------|


e-----------------------------------------------|
b--------------13-13-13-13----------------------|
g-----------------------------------------------|
d-----------------------------------------------|
a-----------------------------------------------|
E-----------------------------------------------|


(verse)
e----------------22-19-20-20-19-22-22-19-20-20--|
b-----13-13-13----------------------------------|
g-----------------------------------------------|
d-----------------------------------------------|
a-----------------------------------------------|
E-----------------------------------------------|


e-19-22-22-19-20-20-19-22-22-19-20-20-19-----------| X6
b--------------------------------------------------|   dont play the thirteens
g--------------------------------------------------|   when you play this six
d--------------------------------------------------|   times.only play the
a--------------------------------------------------|   thirteens in the
E--------------------------------------------------|   beginning of the verse.
                                                    listen to the song
                                                    to understand more
                                                    clearer

thats about it.thats basically the whole song.
and you only play the thirteens in the beginning
and you stop right when you hit the verse.so please
rate and comment me.HAVE FUN!!!!!
Related for Let The Drummer Kick tab