Citizen Cope - Healing Hands tab

-------------------------------------------------------------------------------
			     HEALING HANDS - Citizen Cope
-------------------------------------------------------------------------------
Tabbed by: -Chris
Email:

Tuning: standard

The other version on here works, but Cope uses some weird chord forms, so i
thought i'd tab it how he plays it.  Just the chords, you can figure out the timing...

Intro/Chorus:  "I will never forget..."

e|----------------------------------------------------------------------------|
B|----------------------------------------------------------------------------|
G|-----0------3-----2------2--------------------------------------------------|
D|-----3------5-----2------2--------------------------------------------------|
A|-----5------------4------4--------------------------------------------------|
E|----------------------------------------------------------------------------|


Verse:  "Turn the tape recorder on..."

e|----------------------------------------------------------------------------|
B|-----------1------1---------------------------------------------------------|
G|-----0-----2------0-----0---------------------------------------------------|
D|-----3-----3------2-----0---------------------------------------------------|
A|-----5------------3-----2---------------------------------------------------|
E|------------------------3---------------------------------------------------|

That's pretty much the whole song. Enjoy.
Tap to rate this tab
 
# A B C D E F G H I J K L M N O P Q R S T U V W X Y Z