Citizen Cope - Keep Askin tab

-------------------------------------------------------------------------------
			     Citizen Cope  Keep Askin'
-------------------------------------------------------------------------------
Tabbed by: Logachov Bogdan
Email:Logachyovbogdan@gmail.com

Tuning: standard(just listen to the song ;) )


e|---0---0-(0)--x---x--x----------------------|
B|---0---0-(0)--x---x--x----------------------|
G|---0---9-(0)--0---0--0----------------------|
D|---9---7-(0)--0---0--0----------------------|
A|---7---0-(0)--9---7--6----------------------|
E|---0---0-(0)--10--8--7----------------------|

The whole song u're playing this chords

For some questions or suggestions write me a mail.
Tap to rate this tab
 
# A B C D E F G H I J K L M N O P Q R S T U V W X Y Z