Citizen Cope - Healing Hands Acoustic tab




-------------------------------------------------------------------------------
			    Healing Hands Citizen Cope
-------------------------------------------------------------------------------
Tabbed by:DC
Email:smurfdan@hotmail.com

Tuning:Standard
Chord Progression     Strum pattern DDUD DDUD
e|-3-----2-----3-------|
B|-3-----2-----3-------|
G|-4-----2-----3-------|
D|-5-----3-----4-------|
A|-------4-----5-------|
E|---------------------|



************************************

| /   slide up
| \   slide down
| h   hammer-on
| p   pull-off
| ~   vibrato
| +   harmonic
| x   Mute note
| b   Bend
| pb  Pre-bend
| br  Bend release
| pbr Pre-bend release
| brb Bend release bend

************************************
Tap to rate this tab
 
# A B C D E F G H I J K L M N O P Q R S T U V W X Y Z