Song name
# A B C D E F G H I J K L M N O P Q R S T U V W X Y Z

Citizen Cope - Sideways tab

Slight modification on the previous tabs out there. The Em that has been shown as: 

E-A-D-G-B-e
x-0-2-2-1-0

It should actually be brought down a string, so it should look like: 

E-A-D-G-B-e
x-7-7-5-0-x

The whole song consists of 3 chord sets and they are as follows: 

Intro and Verses: 
e|---x---x---x---x----|
B|---x---x---x---x----|
G|---0---0---0---0----|
D|---5---7---7---7----|
A|---7---5---6---5----|
E|---x---x---x---x----|

Chorus:
e|---x---x---x---x----|
B|---0---x---x---x----|
G|---5---0---0---0----|
D|---7---5---7---7----|
A|---7---7---6---5----|
E|---x---x---x---x----|

Refrain(These feelings won't go away):
e|---x---x---x------|
B|---0---x---x------|
G|---5---0---0------|
D|---7---7---7------|
A|---7---5---6------|
E|---x---x---x------|
Tap to rate this tab
# A B C D E F G H I J K L M N O P Q R S T U V W X Y Z