Song name
# A B C D E F G H I J K L M N O P Q R S T U V W X Y Z

Citizen Cope - Somehow John Lennon tab

Approx. 55bpm
4/4

All notes are 8th notes except for end of 2nd bar of F# (sounds like he plucks the last 
8th note as two 16ths).

This just repeats


  F#7
|----------------------------------||----------------------------------|
|----------------------------------||----------------------------------|
|----------3-----------3-----------||----------3-----------3--------(3)|
|------2-----------2-----------2---||------2-----------2-----------2---|
|--4-----------4-----------4-------||--4-----------4-----------4-------|
|----------------------------------||----------------------------------|
   1   .   2   .   3   .   4   .       1   .   2   .   3   .   4   . +

  C#7sus4                            C#7
|----------------------------------||-------------------------------------|
|----------------------------------||-------------------------------------|
|----------------------------------||-------------------------------------|
|----------4-----------4-----------||----------3-----------3--------------|
|------2-----------2-----------2---||------2-----------2-----------2------|
|--4-----------4-----------4-------||--a4-----------4-----------4---------|
Tap to rate this tab
# A B C D E F G H I J K L M N O P Q R S T U V W X Y Z