Song name
# A B C D E F G H I J K L M N O P Q R S T U V W X Y Z

Citizen Cope - Sideways tab

-----------------------------------------------------
                             Sideways - Citizen Cope
-----------------------------------------------------
Tabbed by: Vandita
E-mail: vandita.attal@hotmail.com

Tuning: Standard (EADGBe)
I think a lot of the other tabs forgot a really obvious high note that comes in during 
the verse/chorus. So if you're looking for something more accurate and similar to the 
song you should check this out.

Intro + you know it ain't easy...
e|----------------------------|
B|----------------------------|
G|----------------------------|   x2
D|--5------7-----7-----7------|
A|--7------5-----6-----5------|
E|----------------------------|
Cause diamonds... + these feelings...
e|----------------------------|
B|----------------------------|
G|--9------9-----9-----9------|   x3
D|--7------5-----7-----7------|
A|--0------7-----6-----5------|
E|----------------------------|
These feelings won't go away...
e|----------------------------|
B|----------------------------|
G|--9------9-----9------------|   x2
D|--7------7-----7------------|
A|--0------5-----6------------|
E|----------------------------|
It ain't easy...
e|----------------------------|
B|----------------------------|
G|----------------------------|
D|--5------7-----7-----7------|
A|--7------5-----6-----5------|
E|----------------------------|
Cause diamonds... + these feelings...
e|----------------------------|
B|----------------------------|
G|--9------9-----9-----9------|   x4
D|--7------5-----7-----7------|
A|--0------7-----6-----5------|
E|----------------------------|
These feelings won't go away...
e|----------------------------|
B|----------------------------|
G|--9------9-----9------------|   x2
D|--7------7-----7------------|
A|--0------5-----6------------|
E|----------------------------|
But diamonds...
e|----------------------------|
B|----------------------------|
G|--9------9-----9-----9------|   x5
D|--7------5-----7-----7------|
A|--0------7-----6-----5------|
E|----------------------------|
These feelings won't go away...
e|----------------------------|
B|----------------------------|
G|--9------9-----9------------|   x3
D|--7------7-----7------------|
A|--0------5-----6------------|
E|----------------------------|


End on 970.

Thanks for checking out my tab, feel free to drop me an email with any doubts, additions 
or requests.
Tap to rate this tab
# A B C D E F G H I J K L M N O P Q R S T U V W X Y Z