Song name
# A B C D E F G H I J K L M N O P Q R S T U V W X Y Z

Citizen Cope - Something To Believe In tab

------------------------------------------------------------------------------
SOMETHING TO BELIEVE IN - CITIZEN COPE
-------------------------------------------------------------------------------
Tabbed by: Reece Robinson
Email: reece@rrmagic.com


How Clarence Actually Plays it:

Verse:

       Gm     C#dim7   C7   Csus4    F7
e|-----3--------x------x------x------x-------------------------------------|
B|-----3--------5------1------x------x-------------------------------------|
G|-----3--------3------3------3------2-------------------------------------|
D|-----5--------5------2------1------1-------------------------------------|
A|-----5--------4------3------3------3-------------------------------------|
E|-------------------------------------------------------------------------|

Chorus: (Cause you keep giving me...) x2

       Gm     G#sus4    Gsus4   G#7   Gm
e|-----3---------x--------x------x-----3-------------------------------|
B|-----3---------x--------x------x-----3-------------------------------|
G|-----3---------8--------7------5-----3-------------------------------|
D|-----5---------6--------5------4-----5-------------------------------|
A|-----5---------8--------7------6-----5-------------------------------|
E|---------------------------------------------------------------------|


(Cause the walls are falling down): x2

       Gm     F    Bdim7   A#dim7
e|-----3------1------3------2---------------------------------------------|
B|-----3------1------1------0---------------------------------------------|
G|-----3------2------3------2---------------------------------------------|
D|-----5------3------2------1---------------------------------------------|
A|-----5------------------------------------------------------------------|
E|------------------------------------------------------------------------|


And of course how could I leave out the rare Citizen Cope solo?

(x2)

e|-----x------x------x------x------x-----x-----x-----x-----------------------|
B|-----x------x------7------7------x-----x-----x-----5-----------------------|
G|-----10-----9------9------7------7-----9-----7-----5-----------------------|
D|-----8------8------7------7------6-----6-----6-----5-----------------------|
A|-----10-----10-----9------9------8-----8-----8-----7-----------------------|
E|---------------------------------------------------------------------------|


5 stars for an accurate tab done from scratch?
Tap to rate this tab
# A B C D E F G H I J K L M N O P Q R S T U V W X Y Z