Song name
# A B C D E F G H I J K L M N O P Q R S T U V W X Y Z

Citizen Cope - Salvation tab

This is my first tab. Please give me feed back if it could be improved. :)

Standard Tuning
 
Listen for strumming.

Verse:
e|--------------------------------------------------------------------------|
B|--------------------------------------------------------------------------|
G|--------------------------------------------------------------------------|
D|--------9------10---9-----10-----9-----10-----9-----10--------------------|
A|--------10-----9----10----9------10----9------10----9---------------------|
E|---------------10---------10-----------10-----------10--------------------| 

Chorus:
e|--------------------------------------------------------------------------|
B|--------------------------------------------------------------------------|
G|--------------------------------------------------------------------------|
D|--------9------8----7-----9-----8-----7-----------------------------------|
A|--------10-----7----6-----10----7-----6-----------------------------------|
E|---------------8----7-----------8-----7-----------------------------------|
Tap to rate this tab
 
# A B C D E F G H I J K L M N O P Q R S T U V W X Y Z