Song name
# A B C D E F G H I J K L M N O P Q R S T U V W X Y Z

Citizen Cope - Dartagnans Theme tab

(standard tuning)

Intro:
Clarence mutes the strings while he strums for a bit, then comes in with:
   C
|---------------------------------------------------------------|
|---------------------------------------------------------------|
|--x--x--x--x----x--x--x--x---x-x-x---x-x-x-x-------------------|
|--2--0--0--2----0--2--0--2---2-2-2---0-0-0-0-------------------|
|--3--3--3--3----3--3--3--3---3-3-3---3-3-3-3-------------------|
|------------------------------------------------1--1--0-1-0-1--|

                                      G                      C
|----------------------------------------------------------------------------|
|----------------------------------------------------------------------------|
|------------------------------------------------------------0-0--0--0--0--0-|
|------------------------------------------------------------2-2--0--2--0--2-|
|-------------------------------------2--2-2-2----0-0-0-0----3-3--3--3--3--3-|
|--1-1-1--1/2--2-2-2--2/3-3--3-3--3---3--3-3-3----3-3-3-3--------------------|

(repeat intro)

Verse:
 I've been sinning                    I've been livin'
|---------------------------------------------------------------|
|---------------------------------------------------------------|
|--x--x--x--x----x--x--x--x---x-x-x---x-x-x-x-------------------|
|--2--0--0--2----0--2--0--2---2-2-2---0-0-0-0-------------------|
|--3--3--3--3----3--3--3--3---3-3-3---3-3-3-3-------------------|
|------------------------------------------------1--1--0-1-0-1--|

           I've been beaten             By Saturdays
|----------------------------------------------------------------------------|
|----------------------------------------------------------------------------|
|------------------------------------------------------------0-0--0--0--0--0-|
|------------------------------------------------------------2-2--0--2--0--2-|
|-------------------------------------2--2-2-2----0-0-0-0----3-3--3--3--3--3-|
|--1-1-1--1/2--2-2-2--2/3-3--3-3--3---3--3-3-3----3-3-3-3--------------------|
(repeat for verses)

Lyrics (cont'd):
On a diamond
I lay on a diamond
On a diamond
I lay awake

D'Artagnan
Good ol' D'Artagnan
He ain't got a thing on me

I've been minding
To my field of timing
Too bad your time in
It just never came


Chorus: (strum chords)
        C
Well I don't know how else to say
      F
In a diffrent way
               G
But why don't you just fade away
                 C
'Cause there's a battle going on
      F
Down south of Babylon
              G
So why don;t you just fade away
Tap to rate this tab
 
# A B C D E F G H I J K L M N O P Q R S T U V W X Y Z