Song name
# A B C D E F G H I J K L M N O P Q R S T U V W X Y Z

Citizen Cope - Brother Lee tab

Brother Lee
By Citizen Cope

tab by Jon Wozniak
http://myspace.com/jonwozniak
http://soundclick.com/jonwozniak
music.download.com/jonwozniak

Intro is 4 bar vamp on Bbm

Verse / Chrous  (2 bars each chord)
    Bbm    Eb    Ab    Adim
e|---6-----5-----4----------------------|
B|---6-----6-----4-------------1--------|
G|---6-----5-----5-----5----------------|
D|---8-----7-----6-----7---or--1--------|
A|---8-----8-----6-----6-------0--------|
E|---6-----5-----4-----5----------------|


litte end riff if you got another guitar

e|--------------------------------------|
B|-------6-----------------6------------|
G|----6----6------------6-----6---------|
D|--8----------x2-----7----------x2-----|
A|--------------------------------------|
E|--------------------------------------|


e|-----------------------------------|
B|-------4-----------------4---------|
G|----5-----5-----------5-----5------|
D|--6----------x2-----7-----------x2-|
A|-----------------------------------|
E|-----------------------------------|
Tap to rate this tab
 
# A B C D E F G H I J K L M N O P Q R S T U V W X Y Z