Guitaretab - guitar tabs
Song name
# A B C D E F G H I J K L M N O P Q R S T U V W X Y Z

Citizen Fish - Will Swap tab

Citizen Fish - Will Swap

Intro
e:----------------|---------------|----------------|---------------|
b:----------------|---------------|----------------|---------------|
g:----------------|---------------|----------------|---------------|
d:------------2---|---------------|------------2---|---------------|
a:--------2-2-----|--------2------|--------2-2-----|--------2------|
e:0-0-4-4---------|5-5-2-0--------|0-0-4-4---------|5-5-2-0--------|

Verse:
e:----------------|----------------|x-4-x-4-x-4-x-4-|x-6-x-6-x-6-x-6-|
b:x-7-x-7-x-7-x-7-|x-7-x-7-x-7-x-7-|x-5-x-5-x-5-x-5-|x-7-x-7-x-7-x-7-|
g:x-8-x-6-x-8-x-8-|x-8-x-8-x-8-x-8-|x-4-x-4-x-4-x-4-|x-6-x-6-x-6-x-6-|
d:x-9-x-9-x-9-x-9-|x-9-x-9-x-9-x-9-|x-6-x-6-x-6-x-6-|x-8-x-8-x-8-x-8-|
a:x-9-x-9-x-9-x-9-|x-9-x-9-x-9-x-9-|----------------|----------------|
e:----------------|----------------|----------------|----------------|

Chorus:
e:----------------|----------------|----------------|----------------|
b:----------------|----------------|----------------|----------------|
g:----------------|----------------|----------------|----------------|
d:7-9-7---7-7-9-7-|9-7-6-x-9-9-7-6-|7-9-7---7-7-9-7-|9-7-6-x-9-9-7-6-|
a:7-9-7---7-7-9-7-|----------------|7-9-7---7-7-9-7-|----------------|
e:5-7-5---5-5-7-5-|----------------|5-7-5---5-5-7-5-|----------------|

e:----------------|----------------|----------------|----------------|
b:----------------|----------------|----------------|----------------|
g:----------------|----------------|----------------|----------------|
d:7-7-7-7-7-7-7-7-|9-9-9-9-9-9-9-9-|7-7-7-7-7-7-7-7-|9-9-9-9-9-9-9-9-|
a:7-7-7-7-7-7-7-7-|9-9-9-9-9-9-9-9-|7-7-7-7-7-7-7-7-|9-9-9-9-9-9-9-9-|
e:5-5-5-5-5-5-5-5-|7-7-7-7-7-7-7-7-|5-5-5-5-5-5-5-5-|7-7-7-7-7-7-7-7-|

e:----------------|---------------|----------------|---------------|
b:----------------|---------------|----------------|---------------|
g:----------------|---------------|----------------|---------------|
d:------------2---|---------------|------------2---|---------------|
a:--------2-2-----|--------2------|--------2-2-----|--------2------|
e:0-0-4-4---------|5-5-2-0--------|0-0-4-4---------|5-5-2-0--------|

Verse:
e:----------------|----------------|x-4-x-4-x-4-x-4-|x-6-x-6-x-6-x-6-|
b:x-7-x-7-x-7-x-7-|x-7-x-7-x-7-x-7-|x-5-x-5-x-5-x-5-|x-7-x-7-x-7-x-7-|
g:x-8-x-6-x-8-x-8-|x-8-x-8-x-8-x-8-|x-4-x-4-x-4-x-4-|x-6-x-6-x-6-x-6-|
d:x-9-x-9-x-9-x-9-|x-9-x-9-x-9-x-9-|x-6-x-6-x-6-x-6-|x-8-x-8-x-8-x-8-|
a:x-9-x-9-x-9-x-9-|x-9-x-9-x-9-x-9-|----------------|----------------|
e:----------------|----------------|----------------|----------------|

[ Tab from: http://www.guitaretab.com/c/citizen-fish/106766.html ]
Chorus:
e:----------------|----------------|----------------|----------------|
b:----------------|----------------|----------------|----------------|
g:----------------|----------------|----------------|----------------|
d:7-9-7---7-7-9-7-|9-7-6-x-9-9-7-6-|7-9-7---7-7-9-7-|9-7-6-x-9-9-7-6-|
a:7-9-7---7-7-9-7-|----------------|7-9-7---7-7-9-7-|----------------|
e:5-7-5---5-5-7-5-|----------------|5-7-5---5-5-7-5-|----------------|

e:----------------|----------------|----------------|----------------|
b:----------------|----------------|----------------|----------------|
g:----------------|----------------|----------------|----------------|
d:7-7-7-7-7-7-7-7-|9-9-9-9-9-9-9-9-|7-7-7-7-7-7-7-7-|9-9-9-9-9-9-9-9-|
a:7-7-7-7-7-7-7-7-|9-9-9-9-9-9-9-9-|7-7-7-7-7-7-7-7-|9-9-9-9-9-9-9-9-|
e:5-5-5-5-5-5-5-5-|7-7-7-7-7-7-7-7-|5-5-5-5-5-5-5-5-|7-7-7-7-7-7-7-7-|

e:----------------|----------------|
b:----------------|----------------|
g:----------------|----------------|
d:9---x-x-x-x-x-x-|9---x-x-x-x-x-x-| several times
a:9---x-x-x-x-x-x-|9---x-x-x-x-x-x-|
e:7---x-x-x-x-x-x-|7---x-x-x-x-x-x-|

e:----------------|
b:----------------|
g:9----11----9----|
d:9----11----9----|
a:7-----9----7----|
e:----------------|

e:----------------|---------------|----------------|---------------|
b:----------------|---------------|----------------|---------------|
g:----------------|---------------|----------------|---------------|
d:------------2---|---------------|------------2---|---------------|
a:--------2-2-----|--------2------|--------2-2-----|--------2------|
e:0-0-4-4---------|5-5-2-0--------|0-0-4-4---------|5-5-2-0--------|

Verse:
e:----------------|----------------|x-4-x-4-x-4-x-4-|x-6-x-6-x-6-x-6-|
b:x-7-x-7-x-7-x-7-|x-7-x-7-x-7-x-7-|x-5-x-5-x-5-x-5-|x-7-x-7-x-7-x-7-|
g:x-8-x-6-x-8-x-8-|x-8-x-8-x-8-x-8-|x-4-x-4-x-4-x-4-|x-6-x-6-x-6-x-6-|
d:x-9-x-9-x-9-x-9-|x-9-x-9-x-9-x-9-|x-6-x-6-x-6-x-6-|x-8-x-8-x-8-x-8-|
a:x-9-x-9-x-9-x-9-|x-9-x-9-x-9-x-9-|----------------|----------------|
e:----------------|----------------|----------------|----------------|

Chorus:
e:----------------|----------------|----------------|----------------|
b:----------------|----------------|----------------|----------------|
g:----------------|----------------|----------------|----------------|
d:7-9-7---7-7-9-7-|9-7-6-x-9-9-7-6-|7-9-7---7-7-9-7-|9-7-6-x-9-9-7-6-|
a:7-9-7---7-7-9-7-|----------------|7-9-7---7-7-9-7-|----------------|
e:5-7-5---5-5-7-5-|----------------|5-7-5---5-5-7-5-|----------------|

e:----------------|----------------|----------------|----------------|
b:----------------|----------------|----------------|----------------|
g:----------------|----------------|----------------|----------------|
d:7-7-7-7-7-7-7-7-|9-9-9-9-9-9-9-9-|7-7-7-7-7-7-7-7-|9-9-9-9-9-9-9-9-|
a:7-7-7-7-7-7-7-7-|9-9-9-9-9-9-9-9-|7-7-7-7-7-7-7-7-|9-9-9-9-9-9-9-9-|
e:5-5-5-5-5-5-5-5-|7-7-7-7-7-7-7-7-|5-5-5-5-5-5-5-5-|7-7-7-7-7-7-7-7-|

e:----------------|---------------|----------------|---------------|
b:----------------|---------------|----------------|---------------|
g:----------------|---------------|----------------|---------------|
d:------------2---|---------------|------------2---|---------------|
a:--------2-2-----|--------2------|--------2-2-----|--------2------|
e:0-0-4-4---------|5-5-2-0--------|0-0-4-4---------|5-5-2-0----0---|

Im not 100% sure about the Verse, but I think it works....
comments lavazza on UG
Related for Will Swap tab