Song name
# A B C D E F G H I J K L M N O P Q R S T U V W X Y Z

Citizen Fish - Habit tab

-------------------------------------------------------------------------------
Habit - Citizen Fish
Active Ingredients
-------------------------------------------------------------------------------
Tabbed by: axeslash
Email: holmzito@yahoo.com

Tuning: Guitar 1 and Guitar 2 are in standard tuning.

Guitar 1:
e|-------------------------------------------------------------------|
B|-8-X-X-X-8-X-X-X-6-X-X-X-6-X-X-X-6-X-X-X-6-X-X-X--8-X-X-X--8-X-X-X-|
G|-7-X-X-X-7-X-X-X-5-X-X-X-5-X-X-X-7-X-X-X-7-X-X-X--9-X-X-X--9-X-X-X-|
D|---------------------------------8-X-X-X-8-X-X-X-10-X-X-X-10-X-X-X-|
A|-------------------------------------------------------------------|
E|-------------------------------------------------------------------| x7

Guitar 1:
e|-----------------6-6-X-X-9-9-X-X-|
B|---------6-6-X-X-4-4-X-X-7-7-X-X-|
G|-7-7-X-X-3-3-X-X-----------------|
D|-5-5-X-X-------------------------|
A|---------------------------------|
E|---------------------------------| x4
Guitar 2:
e|-------------------------------------|
B|-------------------------------------|
G|-------------------------------------|
D|-------------------0-1-1----3-4-4----|
A|----------0-1-1----------------------|
E|-2-3-3-------------------------------| x4

Guitar 1:
e|-------------------------------------------------------------------|
B|-8-X-X-X-8-X-X-X-6-X-X-X-6-X-X-X-6-X-X-X-6-X-X-X--8-X-X-X--8-X-X-X-|
G|-7-X-X-X-7-X-X-X-5-X-X-X-5-X-X-X-7-X-X-X-7-X-X-X--9-X-X-X--9-X-X-X-|
D|---------------------------------8-X-X-X-8-X-X-X-10-X-X-X-10-X-X-X-|
A|-------------------------------------------------------------------|
E|-------------------------------------------------------------------| x4

Guitar 1:
e|-----------------6-6-X-X-9-9-X-X-|
B|---------6-6-X-X-4-4-X-X-7-7-X-X-|
G|-7-7-X-X-3-3-X-X-----------------|
D|-5-5-X-X-------------------------|
A|---------------------------------|
E|---------------------------------| x4
Guitar 2:
e|--------------------------------------|
B|--------------------------------------|
G|--------------------------------------|
D|--------------------0-1-1----3-4-4----|
A|----------0-1-1-----------------------|
E|-2-3-3--------------------------------| x4

Guitar 1:
e|--------------------------------|
B|--------------------------------|
G|-12--10-12----12-10-12-10-12----|
D|-10---8-10----10--8-10--8-10----|
A|--------------------------------|
E|--------------------------------| x2
Guitar 2:
e|------------------------------|
B|------------------------------|
G|------------------------------|
D|------------------------------|
A|-10--8-10----10--8-10-8-10----|
E|--8--6--8-----8--6--8-6--8----| x2

Guitar 1:
e|---------------------------------------------------------------------|
B|---------------------------------------------------------------------|
G|-12--10-----------12--10-----------12--10-----------12--10-----------|
D|-10---8-10--10----10---8-10--10----10---8-10--10----10---8-10--10----|
A|---------8---8------------8---8------------8---8------------8---8----|
E|---------------------------------------------------------------------|
Guitar 2:
e|---------------------------------------------------------------|
B|---------------------------------------------------------------|
G|---------------------------------------------------------------|
D|-------10--10----------10--10------------------------10--10----|
A|-10--8--8---8----10--8--8---8----10--8-3--3----10--8--8---8----|
E|--8--6------------8--6------------8--6-1--1-----8--6-----------|

Guitar 1:
e|-------------------------------------------------------------------|
B|-8-X-X-X-8-X-X-X-6-X-X-X-6-X-X-X-6-X-X-X-6-X-X-X--8-X-X-X--8-X-X-X-|
G|-7-X-X-X-7-X-X-X-5-X-X-X-5-X-X-X-7-X-X-X-7-X-X-X--9-X-X-X--9-X-X-X-|
D|---------------------------------8-X-X-X-8-X-X-X-10-X-X-X-10-X-X-X-|
A|-------------------------------------------------------------------|
E|-------------------------------------------------------------------| x2

Guitars 1 & 2:
e|-------------------------------------|
B|-------------------------------------|
G|-------------------------------------|
D|----------------------------0-1-1----|
A|----------0-1-1----0-1-1-------------|
E|-2-3-3-------------------------------| x7

Guitars 1 & 2:
e|----------------------------------------|
B|----------------------------------------|
G|----------------------------------------|
D|------------------------------0-1-1-1-1-|
A|----------0-1-1-1-1-0-1-1-1-1-----------|
E|-2-3-3----------------------------------|

Guitar 1:
e|-6-X-6-X-X-6-X-4-X-4-X-X-4-X-----------------------------|
B|-6-X-6-X-X-6-X-4-X-4-X-X-4-X-2-X-2-X-X-2-X-4-X-4-X-X-4-X-|
G|-----------------------------1-X-1-X-X-1-X-3-X-3-X-X-3-X-|
D|---------------------------------------------------------|
A|---------------------------------------------------------|
E|---------------------------------------------------------| x2
Guitar 2:
e|---------------------------------------------------------|
B|-----------------------------2-X-2-X-X-2-X-4-X-4-X-X-4-X-|
G|-3-X-3-X-X-3-X-1-X-1-X-X-1-X-1-X-1-X-X-1-X-3-X-3-X-X-3-X-|
D|-3-X-3-X-X-3-X-1-X-1-X-X-1-X-----------------------------|
A|---------------------------------------------------------|
E|---------------------------------------------------------| x2

Guitar 1:
e|-6-X-6-X-X-6-X-4-X-4-X-X-4-X------------------------|
B|-6-X-6-X-X-6-X-4-X-4-X-X-4-X-2--------4-X-4-X-X-4-X-|
G|-----------------------------1--------3-X-3-X-X-3-X-|
D|----------------------------------------------------|
A|----------------------------------------------------|
E|----------------------------------------------------| x2
Guitar 2:
e|----------------------------------------------------|
B|--------------------------------------4-X-4-X-X-4-X-|
G|-3-X-3-X-X-3-X-1-X-1-X-X-1-X----------3-X-3-X-X-3-X-|
D|-3-X-3-X-X-3-X-1-X-1-X-X-1-X------------------------|
A|-----------------------------4----------------------|
E|-----------------------------4----------------------| x2

Guitar 1:
e|-5-6-------------------------------|
B|-----7-8---------------------------|
G|---------6-7-----8-8-8-8-6~~~~~~~~-|
D|-------------8-8-------------------|
A|-----------------------------------|
E|-----------------------------------| x3
Guitar 2:
e|---------------------------------|
B|---------------------------------|
G|-----------------3-3-X-X-6-6-X-X-|
D|---------3-3-X-X-1-1-X-X-4-4-X-X-|
A|-5-5-X-X-1-1-X-X-----------------|
E|-3-3-X-X-------------------------| x3

Guitar 1:
e|-5-6------------------------------------------------|
B|-----7-8--------------------------------------------|
G|---------6-7-----8-8-8-8-6~~~~~~~~-5----------------|
D|-------------8-8------------------------------------|
A|----------------------------------------------------|
E|----------------------------------------------------|
Guitar 2:
e|---------------------------------|
B|---------------------------------|
G|-----------------3-3-X-X-6-6-X-X-|
D|---------3-3-X-X-1-1-X-X-4-4-X-X-|
A|-5-5-X-X-1-1-X-X-----------------|
E|-3-3-X-X-------------------------|


| /  slide up
| \  slide down
| h  hammer-on
| p  pull-off
| ~  vibrato
| +  harmonic
| x  Mute note
===============================================================================
Tap to rate this tab
 
# A B C D E F G H I J K L M N O P Q R S T U V W X Y Z