Song name
# A B C D E F G H I J K L M N O P Q R S T U V W X Y Z

Citizen King - Better Days tab

Help us improve GuitareTab! Take a short survey!
#----------------------------------PLEASE NOTE--------------------------------#
#This file is the author's own work and represents their interpretation of the#
#song. You may only use this file for private study, scholarship, or research.#
#-----------------------------------------------------------------------------#

Artiste: Citizen King
Song: Better Days (and the bottom drops down)
Tabbed by Ernest Ong
Website: http://freshtabs.hypermart.net


Intro (and interlude):
I'm dunno how to explain the strumming patern. It is strummed
up-down up-down very quickly. Kinda like Spanish.
   
|--5----7--8---9--------10---9----8--7---5---|
|--5----6--7--10--------9---10----7--6---5---|
|--6----7--8---9--------10---9----8--7---6---|
|--------------------------------------------|
|--------------------------------------------|
|--------------------------------------------|

Verse:
|---------------------|
|-----2-------3-------|
|---0---0---------3---|
|---------------4---4-|
|-0-------------------|
|---------------------|

Chorus:
E7 020100  
D7 000212      
A  002220

Just before "and the bottom drops down" :
|---------------------|
|--5-------3/2--------|
|---------------2-----|
|---------------------|
|---------------------|
|---------------------|


Bridge:
A7 002223
A  002220

|---------------------|
|--8-------7/5--2-----|
|---------------------|
|---------------------|
|---------------------|
|---------------------|



Ending:
For the ending part, play the chorus chords,then end with this:
|---------------------|
|--5-------3/2--------|
|---------------2-----|
|---------------------|
|---------------------|
|---------------------|


-The End-
Visit http://freshtabs.hypermart.net for more tabs!!
Related for Better Days tab