Song name
# A B C D E F G H I J K L M N O P Q R S T U V W X Y Z

Citizen - The Night I Drove Alone tab

-----------------------------------------------------------------------------
                            THE NIGHT I DROVE ALONE - Citizen
-----------------------------------------------------------------------------

Tuning: Standard

Intro Verse
e|-------------------------------------|
B|-------------------------------------|
G|----2--------------2---------2-------| x a bunch then:
D|----4--------------4---------4-------|
A|---------------2-2-------4-4---------|
E|3-3----------------------------------|

e|-------------------------------------|
B|-------------------------------------|
G|----2--------------2---------6^7^6---|
D|----4--------------4-------4---------|
A|---------------2-2-------0-----------|
E|3-3----------------------------------|
                               *bend/release

                                    After a few times:
e|---------------------------------|-----------------|
B|---------------------------------|-----------------|
G|-----2---------2---------2-------|-----2-----2-----|
D|-----4---------4---------4-------|---4-----4-------|
A|-2-2-------4-4-------------------|-0-----0-----0---|
E|---------------------3-3---------|-----------------|

Second guitar part:
e|-----------------------------------|
B|-----2-------------2--------2------|
G|---2-------------2--------2--------|
D|-----------------------------------|
A|---------------2--------4----------|
E|-3---------------------------------|



Distortion on:
e|------------------------------------------------------------------|
B|------------------------------------------------------------------|
G|---------------------------------4-4-4-4-4-4-4-4-2-2-2-2-2-2-2-2--|
D|-5-5-5-5-5-5-5-5-5-5-5-5-5-5-5-5-4-4-4-4-4-4-4-4-2-2-2-2-2-2-2-2--|
A|-5-5-5-5-5-5-5-5-5-5-5-5-5-5-5-5-2-2-2-2-2-2-2-2-4-4-4-4-4-4-4-4--|
E|-3-3-3-3-3-3-3-3-3-3-3-3-3-3-3-3----------------------------------|
 |                                                                  |
e|------------------------------------------------------------------|
B|------------------------------------------------------------------|
G|-------------------------------------------------7/6--------------|
D|-------------------------------------------------------9---7~~----|
A|------------------------------------------------------------------|
E|------------------------------------------------------------------|


e|------------------------------------------------------------------|
B|------------------------------------------------------------------|
G|---------------------------------4-4-4-4-4-4-4-4-2-2-2-2-2-2-2-2--|
D|-5-5-5-5-5-5-5-5-5-5-5-5-5-5-5-5-4-4-4-4-4-4-4-4-2-2-2-2-2-2-2-2--|
A|-5-5-5-5-5-5-5-5-5-5-5-5-5-5-5-5-2-2-2-2-2-2-2-2-4-4-4-4-4-4-4-4--|
E|-3-3-3-3-3-3-3-3-3-3-3-3-3-3-3-3----------------------------------|
 |                                                                  |
e|------------------------------------------------------------------|
B|--------------------------------------------------------7----5-7--|
G|------------------------------------------------------------------|
D|------------------------------------------------------------------|
A|-------------------------------7/9--------------------------------|
E|------------------------------------------------------------------|


e|------------------------------------------------------------------|
B|------------------------------------------------------------------|
G|---------------------------------4-4-4-4-4-4-4-4-2-2-2-2-2-2-2-2--|
D|-5-5-5-5-5-5-5-5-5-5-5-5-5-5-5-5-4-4-4-4-4-4-4-4-2-2-2-2-2-2-2-2--|
A|-5-5-5-5-5-5-5-5-5-5-5-5-5-5-5-5-2-2-2-2-2-2-2-2-4-4-4-4-4-4-4-4--|
E|-3-3-3-3-3-3-3-3-3-3-3-3-3-3-3-3----------------------------------|
 |                                                                  |
e|------------------------------------------------------------------|
B|----10-7----10-7---5-7-----5-7^8----------------------------------|
G|------------------------------------------------------------------|
D|------------------------------------------------------------------|
A|------------------------------------------------------------------|
E|------------------------------------------------------------------|
                               *slow half bend to 8


e|------------------------------------------------------------------|
B|------------------------------------------------------------------|
G|---------------------------------4-4-4-4-4-4-4-4-2-2-2-2-2-2-2-2--|
D|-5-5-5-5-5-5-5-5-5-5-5-5-5-5-5-5-4-4-4-4-4-4-4-4-2-2-2-2-2-2-2-2--|
A|-5-5-5-5-5-5-5-5-5-5-5-5-5-5-5-5-2-2-2-2-2-2-2-2-4-4-4-4-4-4-4-4--|
E|-3-3-3-3-3-3-3-3-3-3-3-3-3-3-3-3----------------------------------|
 |                                                                  |
e|------------------------------------------------------------------|
B|---------------------------7---5-7---10-7---10-7-^^^^^^^^---------|
G|-7/6-------------------------------------------------------^------|
D|--------9--7------------------------------------------------------|
A|---------------9--------------------------------------------------|
E|------------------------------------------------------------------|
                                            *pick the 7 repeatedly/slow bend



Ending:

e|-------------------------------------|--------|
B|-------------------------------------|--------|
G|----2--------------2---------2-------|-----2--|
D|----4--------------4---------4-------|-----4--|
A|---------------2-2-------4-4---------|--------|
E|3-3----------------------------------|-3-3----|

Tap to rate this tab
# A B C D E F G H I J K L M N O P Q R S T U V W X Y Z