Song name
# A B C D E F G H I J K L M N O P Q R S T U V W X Y Z

Citizen - Sleep tab

-----------------------------------------------------------------------------
                             SLEEP - Citizen
-----------------------------------------------------------------------------

Tuning: Drop D

Intro/Verse:
e|-------------------------------------------0------|
B|--------------------------------------------------|
G|-5-5-5-5-5-5-5-5-5-5-5-5-5-5-5-5-5-5-5-5-5---5----|
D|-7-7-7-7-7-7-5-5-5-5-5-5-7-7-7-7-7-7-5-5-5-----5--|
A|-0------------------------------------------------|
D|--------------------------------------------------|
 |                                                  |
e|--------------------------------------------------|
B|--------------------------------------------------|
G|--------------------------------------------------|
D|-------5-----------5-----------5-----------5------|
A|---0-------0---0-------0---0-------0---0-------0--|
D|-7---7---7---5---5---5---7---7---7---5---5---5----|
  *2nd guitar comes in after a while


Pre-Chorus:
e|------------------------------------|
B|------------------------------------|
G|------------------------------------|
D|-7-7---7-7---7-7---9-9-9-10~~-------|
A|-7-7---7-7---7-7---9-9-9-10~~-------|
D|-7-7---7-7---7-7---9-9-9-10~~-------|


Chorus: x8
e|--------------------------|-----|
B|--------------------------|-----|
G|--------------------------|-----|
D|-7-7-7-7-7-7-5-5-5-5-5-5--|--3--|
A|-7-7-7-7-7-7-5-5-5-5-5-5--|--3--|
D|-7-7-7-7-7-7-5-5-5-5-5-5--|--3--|


Outro: (main chords to How Does it Feel?)
e|-----------------------------------------|
B|-0----0------3----3------7----7---3---3--|
G|-0----0------0----0------0----0---0---0--|x2
D|-2----2--222-2----2--22--5----5---4---4--|
A|-3----3--333-3----3--33--7----7---5---5--|
D|-----------------------------------------|
Tap to rate this tab
# A B C D E F G H I J K L M N O P Q R S T U V W X Y Z