Song name
# A B C D E F G H I J K L M N O P Q R S T U V W X Y Z

Citizen - Speaking With A Ghost Acoustic tab

Standard tuning
Capo on 6th fret
--doing everything according to that.

Intro
E|---0--------0---------0--------0-------------------------------------------|
B|---1--------1---------1--------1-------------------------------------------|
G|---2--------0---------2--------0-------------------------------------------|
D|---3--------2---------2--------0-------------------------------------------|
A|---3-(x8)----3-(x8)---- 0-(x8)----2----------------------------------------|
E|--------------------------------3-(x8)-------------------------------------|  (x2)

verses
E|---0--------0---------0-------- 0--------0--------0---------------------------|
B|---1--------1---------1-------- 1--------1--------1---------------------------|
G|---2--------2---------2-------- 2--------0--------2---------------------------|
D|---2--------3---------2-------- 3--------0--------3---------------------------|
A|---0-(x16)---3-(x16)--- 0-(x16)---3-(x8)--- 2--------3-(x16)------------------|
E|-----------------------------------------3-(x8)-------------------------------|

Chorus
E|---0-------- 0---------0--------0-------------------------------------------|
B|---1-------- 0---------1--------1-------------------------------------------|
G|---0-------- 0---------2--------0-------------------------------------------|
D|---2-------- 2---------3--------0-------------------------------------------|
A|---3-(x8)---- 2(x8)---- -3-(x8)----2----------------------------------------|
E|-------------0------------------3-(x8)--------------------------------------|  (x2)


song order:
Intro
verse
Chorus
intro
verse
chorus
intro - end on the first note
Tap to rate this tab
# A B C D E F G H I J K L M N O P Q R S T U V W X Y Z