Song name
# A B C D E F G H I J K L M N O P Q R S T U V W X Y Z

Citizen - How Does It Feel Acoustic tab

How Does It Feel (Acoustic) - Citzen

Standard tuning


Intro:
e--0---0--0-0-0-0---0--0-0--x---x--x-x--0----0--0-0-|
B--0---0--0-0-3-3---3--3-3--7---7--7-7--3---3/5-3-0-|
G--0---0--0-0-0-0---0--0-0--0---0--0-0--0-----------|
D--2---2--2-2-2-2---2--2-2--5---5--5-5--4-----------|
A--3---3--3-3-3-3---3--3-3--7---7--7-7--5-----------|
E--x---x--x-x-x-x---x--x-x--x---x--x-x--x-----------|


e--0---0--0-0-0-0---0--0-0--x---x--x-x--0--|
B--0---0--0-0-3-3---3--3-3--7---7--7-7--3--|
G--0---0--0-0-0-0---0--0-0--0---0--0-0--0--|
D--2---2--2-2-2-2---2--2-2--5---5--5-5--4--|
A--3---3--3-3-3-3---3--3-3--7---7--7-7--5--|
E--x---x--x-x-x-x---x--x-x--x---x--x-x--x--|

"And how does it feel.."

e--0---0--0-0-0-0---0--0-0--x---x--x-x--0---0--0-0-|
B--0---0--0-0-3-3---3--3-3--7---7--7-7--3---3--3-3-|
G--0---0--0-0-0-0---0--0-0--0---0--0-0--0---0--0-0-| X3
D--2---2--2-2-2-2---2--2-2--5---5--5-5--4---4--4-4-| 
A--3---3--3-3-3-3---3--3-3--7---7--7-7--5---5--5-5-|
E--x---x--x-x-x-x---x--x-x--x---x--x-x--x---x--x-x-|


e--0---0--0-0-0-0---0--0-0--x---x--x-x--0--|
B--0---0--0-0-3-3---3--3-3--7---7--7-7--3--|
G--0---0--0-0-0-0---0--0-0--0---0--0-0--0--|
D--2---2--2-2-2-2---2--2-2--5---5--5-5--4--|
A--3---3--3-3-3-3---3--3-3--7---7--7-7--5--|
E--x---x--x-x-x-x---x--x-x--x---x--x-x--x--|

"..So take me away"

e--0---0--0-0-0-0---0--0-0--x---x--x-x--0----0--0-0-|
B--0---0--0-0-3-3---3--3-3--7---7--7-7--3---3/5-3-0-|
G--0---0--0-0-0-0---0--0-0--0---0--0-0--0-----------|
D--2---2--2-2-2-2---2--2-2--5---5--5-5--4-----------|
A--3---3--3-3-3-3---3--3-3--7---7--7-7--5-----------|
E--x---x--x-x-x-x---x--x-x--x---x--x-x--x-----------|


e--0---0--0-0-0-0---0--0-0--x---x--x-x--0--|
B--0---0--0-0-3-3---3--3-3--7---7--7-7--3--|
G--0---0--0-0-0-0---0--0-0--0---0--0-0--0--|
D--2---2--2-2-2-2---2--2-2--5---5--5-5--4--|
A--3---3--3-3-3-3---3--3-3--7---7--7-7--5--|
E--x---x--x-x-x-x---x--x-x--x---x--x-x--x--|

"And how does it feel.."

e--0---0--0-0-0-0---0--0-0--x---x--x-x--0---0--0-0-|
B--0---0--0-0-3-3---3--3-3--7---7--7-7--3---3--3-3-|
G--0---0--0-0-0-0---0--0-0--0---0--0-0--0---0--0-0-| X3
D--2---2--2-2-2-2---2--2-2--5---5--5-5--4---4--4-4-| 
A--3---3--3-3-3-3---3--3-3--7---7--7-7--5---5--5-5-|
E--x---x--x-x-x-x---x--x-x--x---x--x-x--x---x--x-x-|


e--0---0--0-0-0-0---0--0-0--x---x--x-x--0---0--0-0--0---|
B--0---0--0-0-3-3---3--3-3--7---7--7-7--3---3--3-3--0---|
G--0---0--0-0-0-0---0--0-0--0---0--0-0--0---0--0-0--0---|
D--2---2--2-2-2-2---2--2-2--5---5--5-5--4---4--4-4--2---| 
A--3---3--3-3-3-3---3--3-3--7---7--7-7--5---5--5-5--3---|
E--x---x--x-x-x-x---x--x-x--x---x--x-x--x---x--x-x--x---|


Tap to rate this tab
# A B C D E F G H I J K L M N O P Q R S T U V W X Y Z