Song name
# A B C D E F G H I J K L M N O P Q R S T U V W X Y Z

Citizens Arrest - Essence tab

The new song Essence by Citizens Arrest Copyright 2001

Verse X3:

E---------0-----------------0----------------0----------------0------------------0--------|
B-----0-------0---------0-------0--------0-------0---------0-------0---------0-------0----|
G---0---0---0---0-----0---0---0---0----0---0---0---0-----0---0---0---0-----0---0---0---0--|
D-----------------------------------------------------------------------------------------|
A--7---------------6-----------------5----------------4------------------3----------------|
E-----------------------------------------------------------------------------------------|
   Softly weeps the Peldler...
E---------0-----------------0----------------0------(12-|
B-----0-------0---------0-------0--------0-------0------|
G---0---0---0---0-----0---0---0---0----0---0---0---0----|
D-------------------------------------------------------|
A--2---------------0------------------------------------|
E-----------------------------------3-1-----------------|

Guitar intro: Should be played along with Verse first time through

E-----------------------------------------------------|
B-----------------------------------------------------|
G-----------------------------------------------------|
D------12--14b--12-12--16-14--12-14-12------12---(12--|
A--14-----------------------------------14------------|
E-----------------------------------------------------|

Chorus:

   D                G                 C                E
E----------2-----------------3----------------0----------------0---------(12--|
B------3-------3---------3-------3--------2-------2---------0-------0---------|
G----2---2---2---2-----0---0---0---0----0---0---0---0-----1---1---1---1-------|
D--0--------------------------------------------------------------------------|
A-------------------------------------3---------------------------------------|
E-------------------3-----------------------------------0---------------------|
    And   as  He    looks...

Verse:

Chorus:This chorus is played with chords D5 G5 C5 E5

Verse: Second Stanza is the Guitar Solo

Guitar Solo: New each time


	Thanx Alot from Citizens Arrest.
        Visit are web site at Http://go.to/CitizensArrest
	PS Don't forget to sing the guest book
Tap to rate this tab
# A B C D E F G H I J K L M N O P Q R S T U V W X Y Z