Song name
# A B C D E F G H I J K L M N O P Q R S T U V W X Y Z

Citizens - In Tenderness tab

-------------------------------------------------------------------------------
                             In Tenderness - Citizens
-------------------------------------------------------------------------------
Tabbed by: Rhyn033
E-mail: redrews2@sbcglobal.net

Tuning: Standard

This is one of my favorite worship songs. I figured out the song my Youth Group 
Worship Band. This song is a lot of fun to play. Enjoy :-)

Intro: Piano Only

Verse:
e|-------------------------------------------------------------------------|
B|-------5------------5-------5------------5-------5----------5------------|
G|----6------------6-------6------------6-------6----------6---------------|
D|-7------------7-------7------------7-------7----------7------------------|
A|-------------------------------------------------------------------------|
E|-------------------------------------------------------------------------|

e|-------------------------|      |--------------------------------------|
B|-------4---5---4---2---4-|      |-------4---5---4----------------------|
G|----6--------------------|  OR  |----6--------------6---8--------------|
D|-7-----------------------|      |-7------------------------------------|
A|-------------------------|      |--------------------------------------|
E|-------------------------|      |--------------------------------------|

Repeat that through the Verse, PreChorus, and first Chorus

Interlude:
e|--7---7--7-7---0-0-0-0---0-0-0--0--0-0---0--0--0~----|
B|-10--10-1010---9-9-9-9---0-0-0--0--0-0---0--0--0~----|
G|--9---9--9-9---9-9-9-9---6-6-6--6--6-6---4--4--4~----|
D|--7---7--7-7---9-9-9-9---6-6-6--6--6-6---4--4--4~----|
A|--7---7--7-7-------------4-4-4--4--4-4---2--2--2~----|
E|-----------------------------------------------------|

Verse x4
Pre-Chorus: play the verse riff twice.

Chorus 2:
e|-------------------------------------------------------------------------|
B|-10-10-10-10-10-10-10-10-9-9-9-9-9-9-9-9-5-5-5-5-5-5-5-5-4-4-4-4-4-4-4-4-|
G|-------------------------------------------------------------------------|x3
D|-------------------------------------------------------------------------|
A|-------------------------------------------------------------------------|
E|-------------------------------------------------------------------------|

e|--------------------------------------------------------------------------|
B|-5-5-5-5-5-5-5-5-5-5-5-5-5-5-5-5-10-10-10-10-10-10-10-10-9-9-9-9-9-9-9-9--|
G|--------------------------------------------------------------------------|
D|--------------------------------------------------------------------------|
A|--------------------------------------------------------------------------|
E|--------------------------------------------------------------------------|

Post-Chorus:
e|--------------------------------------------------------------------------|
B|-10-10-10-10-10-10-10-10-9-9-9-9-9-9-9-9-5-5-5-5-5-5-5-5-4-4-4-4-4-4-4-4--|
G|--------------------------------------------------------------------------|x2
D|--------------------------------------------------------------------------|
A|--------------------------------------------------------------------------|
E|--------------------------------------------------------------------------|

Verse 3: A Capella for the first half, then come in with the verse riff about half 
way through and play it through the Pre-Chorus.

Chorus 2
PostChorus

Outro: The band sings the Chorus A Capella without any instruments.

Let me know what you think! Please Rate!
Tap to rate this tab
# A B C D E F G H I J K L M N O P Q R S T U V W X Y Z