Song name
# A B C D E F G H I J K L M N O P Q R S T U V W X Y Z

Citizens - Made Alive tab

Recurring Riff in song:  Corrections Welcome!

Riff:

e--------------------------------------------|
B---12---10------10--------------------------|
G------------12-------9----------------------|
D--------------------------------------------|
A--------------------------------------------|
E--------------------------------------------|


e---------------------------------10--12-------|
B---12---10------10-------10-------------12----|
G------------12-------9-------12---------------|
D----------------------------------------------|
A----------------------------------------------|
E----------------------------------------------|
Tap to rate this tab
# A B C D E F G H I J K L M N O P Q R S T U V W X Y Z