Song name
# A B C D E F G H I J K L M N O P Q R S T U V W X Y Z

Citizens - In Tenderness tab

Tuning: Standard 
This is the main tab for In Tenderness- Citizens
The whole tab is Muted with your hand. 
The tab is somewhat just chord shapes.
C-AM-Dish-and a bar on the 4th fret.
I also like to bar the 6-4-5. It just makes it easy for me. 
I got this from a Youtube video, so if you need it, here it is. 

https://www.youtube.com/watch?v=G7bPLCZmR7w

e|----------------------------------------------------------------|
B|-------5--------5-----5--------5-----5--------5-----4---5-4-----|
G|-----6--------6-----6--------6-----4--------4-----4---------6-4-|
D|---7--------7-----6--------6-----6--------6-----4-----4---------|
A|----------------------------------------------------------------|
E|----------------------------------------------------------------|

e|----------------------------------------------------------------|
B|-------5--------5-----5--------5-----5--------5-----4---5-4-----|
G|-----6--------6-----6--------6-----4--------4-----4---------6-4-|
D|---7--------7-----6--------6-----6--------6-----4-----4---------|
A|----------------------------------------------------------------|
E|----------------------------------------------------------------|

| x   Mute note
Tap to rate this tab
 
# A B C D E F G H I J K L M N O P Q R S T U V W X Y Z