Song name
# A B C D E F G H I J K L M N O P Q R S T U V W X Y Z

City And Colour - The Girl tab

-------------------------------------------------------------------------------
			     THE GIRL- City and Colour
-------------------------------------------------------------------------------
I tabbed this song off the Myspace Transmissions video
Here are the chords used along WITH THE MAJOR FILLS (hammer ons pull offs ect) to 
STRUMMING...watch the video to get the idea and for the rhythm, here's a link
http://www.myspace.com/transmissions

Its a pretty simple song, same progression over and over....

Tuning: Standard Capo 2nd fret

Chords Used
-----G---------Em---------C--------D--------------------------------------------|
e|---0----------0----------3--------5-------------------------------------------|
B|---3----------3----------0--------0-------------------------------------------|
G|---0----------0----------0--------0-------------------------------------------|
D|---0----------2----------2--------4-------------------------------------------|
A|---2----------2----------3--------5-------------------------------------------|
E|---3----------0----------0--------0-------------------------------------------|
Intro
                G                       Em                 C
e|--------------0-------0-----------------------0-----------------0-------------|
B|-----------3----3-----3------------3--------3---0-------------0----0----------|
G|----------------------0-------------------------------------------------------|
D|----------------------0------------2---0h2-----------------2------------------|
A|-----2----------------2------------2----------------2/3---3--3----------------|
E|---3------------------3----2---0----------------------------------------------|
    D                                         G
e|---------------------0--------------------------------------------------------|
B|-------------------0---0------------------------------------------------------|
G|------------------------------------------------------------------------------|
D|----------4-------------------------------------------------------------------|
A|-3/5----5----5-------------------0h2------------------------------------------|
E|-----------------------------3------------3---2---0---------------------------|
Tap to rate this tab
# A B C D E F G H I J K L M N O P Q R S T U V W X Y Z