Song name
# A B C D E F G H I J K L M N O P Q R S T U V W X Y Z

City And Colour - Against The Grain tab

----------------------------------------------------------------------------
	           Against The Grain - City and Colour
----------------------------------------------------------------------------
Tabbed by: Blake
Email: thingslykechemistry@yahoo.com

Tuning: Standard Tuning (Capo on 4)

This is tabbed from the Myspace Transmissions version, but still goes with the album version.

The whole song is played with these chords.
Dallas uses many variations with his pull-offs and hammer-ons, but this is the basic pattern.

Main part of the song (figure out strumming):

e|-0------------0-0--0-------------------0-----------------------------|
B|-1------------1-1--1-------------------1-----------------------------|
G|-0-0h2p0------2p0--0-------------------2-0h2p0-----------------------|
D|-2------0h2p0-2-2--0-------------------3-----------------------------|
A|-3------------0-0--2-0h2p0-0h3p0-0h5p0-0-----------------------------|
E|-0------------x-x--3-3----/5----/7-----x-----------------------------|

What he plays when he sings "you must follow your heart":

e|--0-------------------0-------------0--0---------------|
B|--1-------------------1-------------1--1---------------|
G|--0-------------------2-0h2p0-0h2p0-0--0---------------|
D|--0-------------------3-------------0--2-0h2p0---------|
A|--2-0h2p0-0h3p0-0h5p0-0-------------2--3---------------|
E|--3-3----/5----/7-----0-------------3--0---------------|

End on:

e|--0--|
B|--1--|
G|--0--|
D|--2--|
A|--3--|
E|--0--|


Tap to rate this tab
# A B C D E F G H I J K L M N O P Q R S T U V W X Y Z