Song name
# A B C D E F G H I J K L M N O P Q R S T U V W X Y Z

City And Colour - So Low tab

Help us improve GuitareTab! Take a short survey!
Here is my version of So Low/Sidewalks When She Walks intro.
This is my first tab so please rate and correct me if i am wrong. =)

Standard Tuning
Capo 2

E|----------0-----0-----0---0---0--------------5-----0--------5----0----|
B|--7---7-----7-----7-----7---7---7-----3----3---3--------3----------3--|
G|----4---4-----4-----4---------------6----6-------6----6---6----6------|
D|----------------------------------------------------------------------|
A|----------------------------------------------------------------------|
E|----------------------------------------------------------------------|


E|-----------0----------------0-----------------0----------------0-------|
B|------3------3---3-----3------3---3-------3-----3---3------3-----3---3-|
G|----6----------------6------------------6----------------6-------------|
D|--5-----5------5---5------5-----5-----4-----4-----4----5-----5-----5---|
A|-----------------------------------------------------------------------|
E|-----------------------------------------------------------------------|


E|----------0-----5-----0---0---0-------------5-----0-------5----0------|
B|--7---7-----7-----7-----7---7---7-----3---3---3-------3----------3----|
G|----4---4-----4-----4---------------6---6-------6---6---6---6---------|
D|----------------------------------------------------------------------|
A|----------------------------------------------------------------------|
E|----------------------------------------------------------------------|


E|-----------0----------------0-----------------0----------------0-------|
B|------3------3---3-----3------3---3-------3-----3---3------3-----3---3-|
G|----6----------------6------------------6----------------6-------------|
D|--5-----5------5---5------5-----5-----4-----4-----4----5-----5-----5---|
A|-----------------------------------------------------------------------|
E|-----------------------------------------------------------------------|


I am still working on the verses I will have them up soon.
Related for So Low tab