Song name
# A B C D E F G H I J K L M N O P Q R S T U V W X Y Z

City And Colour - In The Water I Am Beautiful tab

-------------------------------------------------------------------------------
                         In the Water I am Beautiful
                               City And Colour
-------------------------------------------------------------------------------
Tabbed by: Mike

Tuning: Drop D - DADGBe


Intro -

e|-0---0-0---0---------------------------|
B|-0---0-0---0-----------------------0---|
G|-9---9/11--11---0--0--0--0---------0---|
D|-9---9/11--12---0--55-44-00---0-0--0---|
A|-7---7/9---9----4-------------4/5--5---|
D|-7---7/9---9----4-------------4/5--5---| x2



"I know it's not to get away from me..."

e|-0---0-0---0------------------0-0--0---|
B|-0---0-0---0------------------0-0--0---|
G|-9---9/11--11---0--00-00-00---0-0--0---|
D|-9---9/11--12---0--55-44-00---0-0--0---|
A|-7---7/9---9----4--44-44-44---4/5--5---|
D|-7---7/9---9----4--44-44-44---4/5--5---| x4




"These words might be too little too late..."

e|--0---0-0---0---0---0--0-|
B|--0---0-0---0---0---0--0-|
G|--6---6/7---7---4---7--6-|
D|--4---4/5---5---2---5--5-|
A|--4---4/5---5---2---5--5-|
D|--4---4/5---5---2---5--5-| x4 



"When you ask 'Do you love me?'"

e|-0---0-0---0------------------0-0--0---|
B|-0---0-0---0------------------0-0--0---|
G|-9---9/11--11---0--00-00-00---0-0--0---|
D|-9---9/11--12---0--55-44-00---0-0--0---|
A|-7---7/9---9----4--44-44-44---4/5--5---|
D|-7---7/9---9----4--44-44-44---4/5--5---| x4



"These words might be too little too late..."

e|-------------------------------------------------|
B|-------------------------------------------------|
G|-------------------------------------------------|
D|--------4------------7-----------2------------7--|
A|--4444444444444/555555-----0h222222222222/555555-|
D|--4444444444444/555555-----0h222222222222/555555-|



"I'm afraid that I have......Already lost you, now"

e|-------------------------------------------------|
B|-------------------------------------------------|
G|---------------------------4---------8-----------|
D|--------7------------7-----2---------5-----------|
A|--4444444-44444/555555-----2---------5-----------|
D|--4444444-44444/555555-----2---------5-----------|



"Three months equals eternity.."


e|--0---0-0---0---0---0--0-|
B|--0---0-0---0---0---0--0-|
G|--6---6/7---7---4---7--6-|
D|--4---4/5---5---2---5--5-|
A|--4---4/5---5---2---5--5-|
D|--4---4/5---5---2---5--5-| x2


"..arms"

e|--0---0-0-|
B|--0---0-0-|
G|--4---7-6-|
D|--2---5-5-|
A|--2---5-5-|
D|--2---5-5-| x3


End with - 

e|--0---0-0-0-|
B|--0---8-7-7-|
G|--4---7-7-7-|
D|--2---5-5-0-|
A|--2---5-5-0-|
D|--2---5-5-0-|
Tap to rate this tab
# A B C D E F G H I J K L M N O P Q R S T U V W X Y Z