City And Colour - Sometimes tab

Tabbed by: Jacob Friedrich
Email: jquinn57@live.com

Tuning: EADGBe 
        Capo 6th fret

This is actually an incredibly easy song. I know that there 
is some backing guitar line with the chords that follow
along the lines of the intro, but there are some differences 
that I'm still trying to figure out.

Intro:
e|-------------------0---------------------0-------------------0---------------------0-|
B|-------------------0---------------------0-------------------0---------------------0-|
G|------------2-2h4--0--2/4-2--------------0------------2-2h4--0--2/4-2--------------0-|
D|----0-2-2h4--------4--------2/4-2-0-0h2--2----0-2-2h4--------4--------2/4-2-0-0h2--2-|
A|--2----------------2---------------------3--2----------------2---------------------3-|
E|-------------------0---------------------0-------------------0---------------------0-|


These are the main 2 chords used throughout the song.

e|--0--0--|
B|--0--0--|
G|--0--0--|
D|--4--2--|
A|--2--3--|
E|--0--0--|

Solos (incomplete)

|--------------|-----------------|
|--------------|-----------------|
|--------2-2h4-|-------2-------2-|
|----024-------|-44-4----44-4----|
|--2-----------|-----------------|
|--------------|-----------------|


| /  slide up
|   slide down
| h  hammer-on
| p  pull-off
| ~  vibrato
| +  harmonic
| x  Mute note
===============================================================================
Tap to rate this tab
 
# A B C D E F G H I J K L M N O P Q R S T U V W X Y Z