City And Colour - The Girl tab

THE GIRL finger PICKING TAB
CAPO 3RD FRET
STANDARD
finger pick this part..
|-------------------------------------------|
|---------3-----------3---------------------|
|---------0-----------0---------------------|
|----------------------------------------2--|
|-0h2p0-2--------0h2------0h2--0h3p0--0--2--|
|-3-----3--------3--------3----3------2--0--|


|-----------------------------|
|--------0--0--0--------------|
|--------0-----0-------0------|
|----0h2----2-----0h2----2----|
|----2------2-----2--------2--|
|-----------------------------|


|----------------------------|
|---------0-------------0----|
|-----0---0--0-------0--0-0--|
|---2---------2--2s4--------4|
|-2s3---3--------3s5--5------|
|----------------------------|


|---------------------------------|
|--------0-----3-------3----------|
|--------0-----0-------0----------|
|----------0-------0--------0-----|
|-2---0h2--0h2-----0h2----2-2-----|
|-3---3------------3------3-3-----|

then repeat as needed.

THE FAST STRUMMY BIT IS
G, E Minor, Cadd9 Then 

Uhh It is kinda like this

|---0-------|
|---5-------|
|---0-------|
|---4-------|
|---5-------|
|-----------|

feel free to tell me what it actually is called :D
Tap to rate this tab
 
# A B C D E F G H I J K L M N O P Q R S T U V W X Y Z